  0
SECTION
  2
HEADER
  9
$ACADVER
  1
AC1015
  9
$ACADMAINTVER
 70
    20
  9
$DWGCODEPAGE
  3
ANSI_936
  9
$INSBASE
 10
0.0
 20
0.0
 30
0.0
  9
$EXTMIN
 10
2771.163704437291
 20
433.0374197813653
 30
-0.0015258207003583
  9
$EXTMAX
 10
3709.639415555949
 20
1069.461673588331
 30
0.0000000349246037
  9
$LIMMIN
 10
0.0
 20
0.0
  9
$LIMMAX
 10
12.0
 20
9.0
  9
$ORTHOMODE
 70
     1
  9
$REGENMODE
 70
     1
  9
$FILLMODE
 70
     0
  9
$QTEXTMODE
 70
     0
  9
$MIRRTEXT
 70
     1
  9
$LTSCALE
 40
1.0
  9
$ATTMODE
 70
     1
  9
$TEXTSIZE
 40
2.5
  9
$TRACEWID
 40
0.05
  9
$TEXTSTYLE
  7
Standard
  9
$CLAYER
  8
0
  9
$CELTYPE
  6
ByLayer
  9
$CECOLOR
 62
   256
  9
$CELTSCALE
 40
3.0
  9
$DISPSILH
 70
     0
  9
$DIMSCALE
 40
1.0
  9
$DIMASZ
 40
25.0
  9
$DIMEXO
 40
12.0
  9
$DIMDLI
 40
80.0
  9
$DIMRND
 40
0.0
  9
$DIMDLE
 40
0.0
  9
$DIMEXE
 40
12.5
  9
$DIMTP
 40
0.0
  9
$DIMTM
 40
0.0
  9
$DIMTXT
 40
25.0
  9
$DIMCEN
 40
0.0
  9
$DIMTSZ
 40
0.0
  9
$DIMTOL
 70
     0
  9
$DIMLIM
 70
     0
  9
$DIMTIH
 70
     0
  9
$DIMTOH
 70
     0
  9
$DIMSE1
 70
     0
  9
$DIMSE2
 70
     0
  9
$DIMTAD
 70
     1
  9
$DIMZIN
 70
     8
  9
$DIMBLK
  1

  9
$DIMASO
 70
     1
  9
$DIMSHO
 70
     1
  9
$DIMPOST
  1

  9
$DIMAPOST
  1

  9
$DIMALT
 70
     0
  9
$DIMALTD
 70
     2
  9
$DIMALTF
 40
25.4
  9
$DIMLFAC
 40
1.0
  9
$DIMTOFL
 70
     0
  9
$DIMTVP
 40
0.0
  9
$DIMTIX
 70
     0
  9
$DIMSOXD
 70
     0
  9
$DIMSAH
 70
     0
  9
$DIMBLK1
  1

  9
$DIMBLK2
  1

  9
$DIMSTYLE
  2
Standard
  9
$DIMCLRD
 70
   256
  9
$DIMCLRE
 70
   256
  9
$DIMCLRT
 70
   256
  9
$DIMTFAC
 40
1.0
  9
$DIMGAP
 40
1.0
  9
$DIMJUST
 70
     0
  9
$DIMSD1
 70
     0
  9
$DIMSD2
 70
     0
  9
$DIMTOLJ
 70
     1
  9
$DIMTZIN
 70
     0
  9
$DIMALTZ
 70
     0
  9
$DIMALTTZ
 70
     0
  9
$DIMUPT
 70
     0
  9
$DIMDEC
 70
     2
  9
$DIMTDEC
 70
     2
  9
$DIMALTU
 70
     2
  9
$DIMALTTD
 70
     2
  9
$DIMTXSTY
  7
Standard
  9
$DIMAUNIT
 70
     0
  9
$DIMADEC
 70
     2
  9
$DIMALTRND
 40
0.0
  9
$DIMAZIN
 70
     2
  9
$DIMDSEP
 70
    46
  9
$DIMATFIT
 70
     3
  9
$DIMFRAC
 70
     0
  9
$DIMLDRBLK
  1

  9
$DIMLUNIT
 70
     2
  9
$DIMLWD
 70
    -1
  9
$DIMLWE
 70
    -1
  9
$DIMTMOVE
 70
     0
  9
$LUNITS
 70
     2
  9
$LUPREC
 70
     3
  9
$SKETCHINC
 40
0.1
  9
$FILLETRAD
 40
15.0
  9
$AUNITS
 70
     0
  9
$AUPREC
 70
     2
  9
$MENU
  1
.
  9
$ELEVATION
 40
0.0
  9
$PELEVATION
 40
0.0
  9
$THICKNESS
 40
0.0
  9
$LIMCHECK
 70
     0
  9
$CHAMFERA
 40
0.5
  9
$CHAMFERB
 40
0.5
  9
$CHAMFERC
 40
1.0
  9
$CHAMFERD
 40
0.0
  9
$SKPOLY
 70
     0
  9
$TDCREATE
 40
2453953.523412176
  9
$TDUCREATE
 40
2453953.190078843
  9
$TDUPDATE
 40
2456564.605616250
  9
$TDUUPDATE
 40
2456564.272282917
  9
$TDINDWG
 40
0.2533512500
  9
$TDUSRTIMER
 40
0.2533512500
  9
$USRTIMER
 70
     1
  9
$ANGBASE
 50
0.0
  9
$ANGDIR
 70
     0
  9
$PDMODE
 70
     0
  9
$PDSIZE
 40
0.0
  9
$PLINEWID
 40
0.0
  9
$SPLFRAME
 70
     0
  9
$SPLINETYPE
 70
     6
  9
$SPLINESEGS
 70
     8
  9
$HANDSEED
  5
C5A2
  9
$SURFTAB1
 70
     6
  9
$SURFTAB2
 70
     6
  9
$SURFTYPE
 70
     6
  9
$SURFU
 70
     6
  9
$SURFV
 70
     6
  9
$UCSBASE
  2

  9
$UCSNAME
  2

  9
$UCSORG
 10
0.0
 20
0.0
 30
0.0
  9
$UCSXDIR
 10
1.0
 20
0.0
 30
0.0
  9
$UCSYDIR
 10
0.0
 20
1.0
 30
0.0
  9
$UCSORTHOREF
  2

  9
$UCSORTHOVIEW
 70
     1
  9
$UCSORGTOP
 10
0.0
 20
0.0
 30
0.0
  9
$UCSORGBOTTOM
 10
0.0
 20
0.0
 30
0.0
  9
$UCSORGLEFT
 10
0.0
 20
0.0
 30
0.0
  9
$UCSORGRIGHT
 10
0.0
 20
0.0
 30
0.0
  9
$UCSORGFRONT
 10
0.0
 20
0.0
 30
0.0
  9
$UCSORGBACK
 10
0.0
 20
0.0
 30
0.0
  9
$PUCSBASE
  2

  9
$PUCSNAME
  2

  9
$PUCSORG
 10
0.0
 20
0.0
 30
0.0
  9
$PUCSXDIR
 10
1.0
 20
0.0
 30
0.0
  9
$PUCSYDIR
 10
0.0
 20
1.0
 30
0.0
  9
$PUCSORTHOREF
  2

  9
$PUCSORTHOVIEW
 70
     0
  9
$PUCSORGTOP
 10
0.0
 20
0.0
 30
0.0
  9
$PUCSORGBOTTOM
 10
0.0
 20
0.0
 30
0.0
  9
$PUCSORGLEFT
 10
0.0
 20
0.0
 30
0.0
  9
$PUCSORGRIGHT
 10
0.0
 20
0.0
 30
0.0
  9
$PUCSORGFRONT
 10
0.0
 20
0.0
 30
0.0
  9
$PUCSORGBACK
 10
0.0
 20
0.0
 30
0.0
  9
$USERI1
 70
     0
  9
$USERI2
 70
     0
  9
$USERI3
 70
     0
  9
$USERI4
 70
     0
  9
$USERI5
 70
     0
  9
$USERR1
 40
0.0
  9
$USERR2
 40
0.0
  9
$USERR3
 40
0.0
  9
$USERR4
 40
0.0
  9
$USERR5
 40
0.0
  9
$WORLDVIEW
 70
     1
  9
$SHADEDGE
 70
     3
  9
$SHADEDIF
 70
    70
  9
$TILEMODE
 70
     1
  9
$MAXACTVP
 70
    64
  9
$PINSBASE
 10
0.0
 20
0.0
 30
0.0
  9
$PLIMCHECK
 70
     0
  9
$PEXTMIN
 10
0.0
 20
0.0
 30
0.0
  9
$PEXTMAX
 10
0.0
 20
0.0
 30
0.0
  9
$PLIMMIN
 10
0.0
 20
0.0
  9
$PLIMMAX
 10
12.0
 20
9.0
  9
$UNITMODE
 70
     0
  9
$VISRETAIN
 70
     1
  9
$PLINEGEN
 70
     0
  9
$PSLTSCALE
 70
     1
  9
$TREEDEPTH
 70
  3020
  9
$CMLSTYLE
  2
Standard
  9
$CMLJUST
 70
     0
  9
$CMLSCALE
 40
1.0
  9
$PROXYGRAPHICS
 70
     1
  9
$MEASUREMENT
 70
     1
  9
$CELWEIGHT
370
    -1
  9
$ENDCAPS
280
     0
  9
$JOINSTYLE
280
     0
  9
$LWDISPLAY
290
     0
  9
$INSUNITS
 70
     1
  9
$HYPERLINKBASE
  1

  9
$STYLESHEET
  1
acad.ctb
  9
$XEDIT
290
     1
  9
$CEPSNTYPE
380
     0
  9
$PSTYLEMODE
290
     1
  9
$FINGERPRINTGUID
  2
{FDEAD576-A652-11D2-9A35-0060089B3A3F}
  9
$VERSIONGUID
  2
{27D83163-9F94-4965-9B8D-BD7B1F392F35}
  9
$EXTNAMES
290
     1
  9
$PSVPSCALE
 40
0.0
  9
$OLESTARTUP
290
     0
  0
ENDSEC
  0
SECTION
  2
CLASSES
  0
CLASS
  1
ACDBDICTIONARYWDFLT
  2
AcDbDictionaryWithDefault
  3
ObjectDBX Classes
 90
        0
280
     0
281
     0
  0
CLASS
  1
ACDBPLACEHOLDER
  2
AcDbPlaceHolder
  3
ObjectDBX Classes
 90
        0
280
     0
281
     0
  0
CLASS
  1
LAYOUT
  2
AcDbLayout
  3
ObjectDBX Classes
 90
        0
280
     0
281
     0
  0
CLASS
  1
DICTIONARYVAR
  2
AcDbDictionaryVar
  3
ObjectDBX Classes
 90
        0
280
     0
281
     0
  0
CLASS
  1
DIMASSOC
  2
AcDbDimAssoc
  3
"AcDbDimAssoc|Product Desc:     AcDim ARX App For Dimension|Company:          Autodesk, Inc.|WEB Address:      www.autodesk.com"
 90
        0
280
     0
281
     0
  0
CLASS
  1
MATERIAL
  2
AcDbMaterial
  3
ObjectDBX Classes
 90
     1153
280
     0
281
     0
  0
CLASS
  1
VISUALSTYLE
  2
AcDbVisualStyle
  3
ObjectDBX Classes
 90
     4095
280
     0
281
     0
  0
CLASS
  1
TABLESTYLE
  2
AcDbTableStyle
  3
ObjectDBX Classes
 90
     4095
280
     0
281
     0
  0
CLASS
  1
SCALE
  2
AcDbScale
  3
ObjectDBX Classes
 90
     1153
280
     0
281
     0
  0
CLASS
  1
MLEADERSTYLE
  2
AcDbMLeaderStyle
  3
ACDB_MLEADERSTYLE_CLASS
 90
     4095
280
     0
281
     0
  0
CLASS
  1
CELLSTYLEMAP
  2
AcDbCellStyleMap
  3
ObjectDBX Classes
 90
     1152
280
     0
281
     0
  0
ENDSEC
  0
SECTION
  2
TABLES
  0
TABLE
  2
VPORT
  5
8
102
{ACAD_XDICTIONARY
360
C4BF
102
}
330
0
100
AcDbSymbolTable
 70
     1
  0
VPORT
  5
C572
330
8
100
AcDbSymbolTableRecord
100
AcDbViewportTableRecord
  2
*Active
 70
     0
 10
0.0
 20
0.0
 11
1.0
 21
1.0
 12
3241.397661949749
 22
639.7153290502046
 13
0.0
 23
0.0
 14
0.5
 24
0.5
 15
0.5
 25
0.5
 16
0.0
 26
0.0
 36
1.0
 17
48.04208501323109
 27
85.24028754649398
 37
-0.1027604351182385
 40
1030.722128226665
 41
2.736734693877551
 42
50.0
 43
0.0
 44
0.0
 50
0.0
 51
0.0
 71
     0
 72
 20000
 73
     1
 74
     3
 75
     0
 76
     0
 77
     0
 78
     0
281
     0
 65
     1
110
0.0
120
0.0
130
0.0
111
1.0
121
0.0
131
0.0
112
0.0
122
1.0
132
0.0
 79
     0
146
0.0
  0
ENDTAB
  0
TABLE
  2
LTYPE
  5
5
330
0
100
AcDbSymbolTable
 70
     4
  0
LTYPE
  5
14
330
5
100
AcDbSymbolTableRecord
100
AcDbLinetypeTableRecord
  2
ByBlock
 70
     0
  3

 72
    65
 73
     0
 40
0.0
  0
LTYPE
  5
15
330
5
100
AcDbSymbolTableRecord
100
AcDbLinetypeTableRecord
  2
ByLayer
 70
     0
  3

 72
    65
 73
     0
 40
0.0
  0
LTYPE
  5
16
330
5
100
AcDbSymbolTableRecord
100
AcDbLinetypeTableRecord
  2
Continuous
 70
     0
  3
Solid line
 72
    65
 73
     0
 40
0.0
  0
LTYPE
  5
14F
330
5
100
AcDbSymbolTableRecord
100
AcDbLinetypeTableRecord
  2
CENTER
 70
     0
  3
Center ____ _ ____ _ ____ _ ____ _ ____ _ ____
 72
    65
 73
     4
 40
2.0
 49
1.25
 74
     0
 49
-0.25
 74
     0
 49
0.25
 74
     0
 49
-0.25
 74
     0
  0
LTYPE
  5
8723
330
5
100
AcDbSymbolTableRecord
100
AcDbLinetypeTableRecord
  2
ACAD_ISO03W100
 70
     0
  3
ISO dash space __    __    __    __    __    __
 72
    65
 73
     2
 40
30.0
 49
12.0
 74
     0
 49
-18.0
 74
     0
  0
LTYPE
  5
8F7F
330
5
100
AcDbSymbolTableRecord
100
AcDbLinetypeTableRecord
  2
HIDDEN
 70
     0
  3
Hidden __ __ __ __ __ __ __ __ __ __ __ __ __ _
 72
    65
 73
     2
 40
0.375
 49
0.25
 74
     0
 49
-0.125
 74
     0
  0
ENDTAB
  0
TABLE
  2
LAYER
  5
2
330
0
100
AcDbSymbolTable
 70
     8
  0
LAYER
  5
10
102
{ACAD_XDICTIONARY
360
C481
102
}
330
2
100
AcDbSymbolTableRecord
100
AcDbLayerTableRecord
  2
0
 70
     0
 62
     7
  6
Continuous
370
    -3
390
F
  0
LAYER
  5
A7
330
2
100
AcDbSymbolTableRecord
100
AcDbLayerTableRecord
  2
Defpoints
 70
     0
 62
     7
  6
Continuous
290
     0
370
    -3
390
F
  0
LAYER
  5
147
102
{ACAD_XDICTIONARY
360
C483
102
}
330
2
100
AcDbSymbolTableRecord
100
AcDbLayerTableRecord
  2
实体
 70
     0
 62
     3
  6
Continuous
370
    -3
390
F
  0
LAYER
  5
148
102
{ACAD_XDICTIONARY
360
C485
102
}
330
2
100
AcDbSymbolTableRecord
100
AcDbLayerTableRecord
  2
中心线
 70
     0
 62
     1
  6
CENTER
370
    -3
390
F
  0
LAYER
  5
149
102
{ACAD_XDICTIONARY
360
C487
102
}
330
2
100
AcDbSymbolTableRecord
100
AcDbLayerTableRecord
  2
细实线
 70
     0
 62
     6
  6
Continuous
370
    -3
390
F
  0
LAYER
  5
14A
102
{ACAD_XDICTIONARY
360
C489
102
}
330
2
100
AcDbSymbolTableRecord
100
AcDbLayerTableRecord
  2
标注
 70
     0
 62
     2
  6
Continuous
370
    -3
390
F
  0
LAYER
  5
14C
102
{ACAD_XDICTIONARY
360
C48B
102
}
330
2
100
AcDbSymbolTableRecord
100
AcDbLayerTableRecord
  2
图框
 70
     0
 62
    80
  6
Continuous
370
    -3
390
F
  0
LAYER
  5
8F80
102
{ACAD_XDICTIONARY
360
C48D
102
}
330
2
100
AcDbSymbolTableRecord
100
AcDbLayerTableRecord
  2
虚线
 70
     0
 62
     6
  6
HIDDEN
370
    -3
390
F
  0
ENDTAB
  0
TABLE
  2
STYLE
  5
3
330
0
100
AcDbSymbolTable
 70
     2
  0
STYLE
  5
11
330
3
100
AcDbSymbolTableRecord
100
AcDbTextStyleTableRecord
  2
Standard
 70
     0
 40
25.0
 41
1.0
 50
0.0
 71
     0
 42
2.5
  3
SimSun.ttf
  4

1001
ACAD
1000
SimSun
1071
    34306
  0
STYLE
  5
8722
330
3
100
AcDbSymbolTableRecord
100
AcDbTextStyleTableRecord
  2

 70
     1
 40
0.0
 41
1.0
 50
0.0
 71
     0
 42
1.25
  3
ltypeshp.shx
  4

  0
ENDTAB
  0
TABLE
  2
VIEW
  5
6
330
0
100
AcDbSymbolTable
 70
     0
  0
ENDTAB
  0
TABLE
  2
UCS
  5
7
330
0
100
AcDbSymbolTable
 70
     0
  0
ENDTAB
  0
TABLE
  2
APPID
  5
9
330
0
100
AcDbSymbolTable
 70
     3
  0
APPID
  5
12
330
9
100
AcDbSymbolTableRecord
100
AcDbRegAppTableRecord
  2
ACAD
 70
     0
  0
APPID
  5
C3EF
330
9
100
AcDbSymbolTableRecord
100
AcDbRegAppTableRecord
  2
ACAD_MLEADERVER
 70
     0
  0
APPID
  5
C47F
330
9
100
AcDbSymbolTableRecord
100
AcDbRegAppTableRecord
  2
AcadAnnoPO
 70
     0
  0
ENDTAB
  0
TABLE
  2
DIMSTYLE
  5
A
330
0
100
AcDbSymbolTable
 70
     6
100
AcDbDimStyleTable
 71
     3
340
27
340
7BF5
340
8E5A
  0
DIMSTYLE
105
27
330
A
100
AcDbSymbolTableRecord
100
AcDbDimStyleTableRecord
  2
Standard
 70
     0
 41
25.0
 42
12.0
 43
80.0
 44
12.5
 73
     0
 74
     0
 77
     1
 78
     8
 79
     2
140
25.0
141
0.0
147
1.0
176
   256
177
   256
178
   256
179
     2
271
     2
272
     2
340
11
371
    -1
372
    -1
  0
DIMSTYLE
105
7BF5
330
A
100
AcDbSymbolTableRecord
100
AcDbDimStyleTableRecord
  2
圆角
 70
     0
 41
2.5
 42
0.0
 43
8.0
 44
1.25
 73
     0
 77
     1
 78
     8
 79
     2
140
2.5
141
0.0
147
1.0
176
   256
177
   256
178
   256
179
     2
271
     2
272
     2
340
11
371
    -1
372
    -1
  0
DIMSTYLE
105
7D7C
330
A
100
AcDbSymbolTableRecord
100
AcDbDimStyleTableRecord
  2
圆水平标注
 70
     0
 41
0.625
 42
0.0
 43
8.0
 44
0.3125
 73
     0
 77
     1
 78
     8
 79
     2
140
0.625
141
0.0
147
0.25
176
   256
177
   256
178
   256
179
     2
271
     2
272
     2
340
11
371
    -1
372
    -1
  0
DIMSTYLE
105
88A1
330
A
100
AcDbSymbolTableRecord
100
AcDbDimStyleTableRecord
  2
圆角标注
 70
     0
 41
0.625
 42
0.0
 43
8.0
 44
0.3125
 73
     0
 77
     1
 78
     8
 79
     2
140
0.625
141
0.0
147
0.25
176
   256
177
   256
178
   256
179
     2
271
     2
272
     2
340
11
371
    -1
372
    -1
  0
DIMSTYLE
105
8E5A
330
A
100
AcDbSymbolTableRecord
100
AcDbDimStyleTableRecord
  2
ISO
 70
     0
 41
50.0
 42
0.0
 43
160.0
 44
25.0
 73
     0
 77
     1
 78
     8
 79
     2
140
50.0
141
0.0
147
18.0
176
   256
177
   256
178
   256
179
     2
271
     0
272
     0
340
11
371
    -1
372
    -1
  0
DIMSTYLE
105
8E9F
330
A
100
AcDbSymbolTableRecord
100
AcDbDimStyleTableRecord
  2
ISO-25
 70
     0
 41
2.5
 42
0.625
 43
3.75
 44
1.25
 73
     0
 74
     0
 77
     1
 78
     8
140
2.5
141
2.5
143
0.03937007874016
147
0.625
171
     3
172
     1
271
     2
272
     2
274
     3
283
     0
284
     8
340
11
  0
ENDTAB
  0
TABLE
  2
BLOCK_RECORD
  5
1
330
0
100
AcDbSymbolTable
 70
    24
  0
BLOCK_RECORD
  5
1F
330
1
100
AcDbSymbolTableRecord
100
AcDbBlockTableRecord
  2
*Model_Space
340
22
  0
BLOCK_RECORD
  5
166F
330
1
100
AcDbSymbolTableRecord
100
AcDbBlockTableRecord
  2
*Paper_Space
340
1670
  0
BLOCK_RECORD
  5
90F5
330
1
100
AcDbSymbolTableRecord
100
AcDbBlockTableRecord
  2
_None
340
0
  0
BLOCK_RECORD
  5
9E05
330
1
100
AcDbSymbolTableRecord
100
AcDbBlockTableRecord
  2
*D1
340
0
  0
BLOCK_RECORD
  5
9E11
330
1
100
AcDbSymbolTableRecord
100
AcDbBlockTableRecord
  2
*D2
340
0
  0
BLOCK_RECORD
  5
9E52
330
1
100
AcDbSymbolTableRecord
100
AcDbBlockTableRecord
  2
*D3
340
0
  0
BLOCK_RECORD
  5
9E66
330
1
100
AcDbSymbolTableRecord
100
AcDbBlockTableRecord
  2
*D4
340
0
  0
BLOCK_RECORD
  5
A48A
330
1
100
AcDbSymbolTableRecord
100
AcDbBlockTableRecord
  2
*D5
340
0
  0
BLOCK_RECORD
  5
A902
330
1
100
AcDbSymbolTableRecord
100
AcDbBlockTableRecord
  2
*D6
340
0
  0
BLOCK_RECORD
  5
AA0D
330
1
100
AcDbSymbolTableRecord
100
AcDbBlockTableRecord
  2
*D7
340
0
  0
BLOCK_RECORD
  5
AA25
330
1
100
AcDbSymbolTableRecord
100
AcDbBlockTableRecord
  2
*D8
340
0
  0
BLOCK_RECORD
  5
B37B
330
1
100
AcDbSymbolTableRecord
100
AcDbBlockTableRecord
  2
*D9
340
0
  0
BLOCK_RECORD
  5
B391
330
1
100
AcDbSymbolTableRecord
100
AcDbBlockTableRecord
  2
*D10
340
0
  0
BLOCK_RECORD
  5
B4D5
330
1
100
AcDbSymbolTableRecord
100
AcDbBlockTableRecord
  2
A$C3C4B3ADC
340
0
  0
BLOCK_RECORD
  5
BA45
330
1
100
AcDbSymbolTableRecord
100
AcDbBlockTableRecord
  2
*D12
340
0
  0
BLOCK_RECORD
  5
BA65
330
1
100
AcDbSymbolTableRecord
100
AcDbBlockTableRecord
  2
*D13
340
0
  0
BLOCK_RECORD
  5
BB94
330
1
100
AcDbSymbolTableRecord
100
AcDbBlockTableRecord
  2
*D14
340
0
  0
BLOCK_RECORD
  5
BBAC
330
1
100
AcDbSymbolTableRecord
100
AcDbBlockTableRecord
  2
*D15
340
0
  0
BLOCK_RECORD
  5
BFEA
330
1
100
AcDbSymbolTableRecord
100
AcDbBlockTableRecord
  2
*D16
340
0
  0
BLOCK_RECORD
  5
C001
330
1
100
AcDbSymbolTableRecord
100
AcDbBlockTableRecord
  2
*D17
340
0
  0
BLOCK_RECORD
  5
C4D1
330
1
100
AcDbSymbolTableRecord
100
AcDbBlockTableRecord
  2
*D18
340
0
  0
BLOCK_RECORD
  5
C4E7
330
1
100
AcDbSymbolTableRecord
100
AcDbBlockTableRecord
  2
*D19
340
0
  0
BLOCK_RECORD
  5
C51B
330
1
100
AcDbSymbolTableRecord
100
AcDbBlockTableRecord
  2
*D20
340
0
  0
BLOCK_RECORD
  5
C52B
330
1
100
AcDbSymbolTableRecord
100
AcDbBlockTableRecord
  2
*D21
340
0
  0
BLOCK_RECORD
  5
C543
330
1
100
AcDbSymbolTableRecord
100
AcDbBlockTableRecord
  2
*D22
340
0
  0
BLOCK_RECORD
  5
C55B
330
1
100
AcDbSymbolTableRecord
100
AcDbBlockTableRecord
  2
*D23
340
0
  0
ENDTAB
  0
ENDSEC
  0
SECTION
  2
BLOCKS
  0
BLOCK
  5
20
330
1F
100
AcDbEntity
  8
0
100
AcDbBlockBegin
  2
*Model_Space
 70
     0
 10
0.0
 20
0.0
 30
0.0
  3
*Model_Space
  1

  0
ENDBLK
  5
21
330
1F
100
AcDbEntity
  8
0
100
AcDbBlockEnd
  0
BLOCK
  5
1671
330
166F
100
AcDbEntity
 67
     1
  8
0
100
AcDbBlockBegin
  2
*Paper_Space
 70
     0
 10
0.0
 20
0.0
 30
0.0
  3
*Paper_Space
  1

  0
ENDBLK
  5
1672
330
166F
100
AcDbEntity
 67
     1
  8
0
100
AcDbBlockEnd
  0
BLOCK
  5
90F6
330
90F5
100
AcDbEntity
  8
0
100
AcDbBlockBegin
  2
_None
 70
     0
 10
0.0
 20
0.0
 30
0.0
  3
_None
  1

  0
ENDBLK
  5
90F7
330
90F5
100
AcDbEntity
  8
0
100
AcDbBlockEnd
  0
BLOCK
  5
9E0F
330
9E05
100
AcDbEntity
  8
0
 48
3.0
100
AcDbBlockBegin
  2
*D1
 70
     1
 10
0.0
 20
0.0
 30
0.0
  3
*D1
  1

  0
LINE
  5
C475
330
9E05
100
AcDbEntity
  8
0
 48
3.0
100
AcDbLine
 10
2394.526010985787
 20
1506.709580536094
 30
0.0
 11
2541.724094959778
 21
1506.709580536094
 31
0.0
  0
LINE
  5
C476
330
9E05
100
AcDbEntity
  8
0
 48
3.0
100
AcDbLine
 10
2343.464255414541
 20
1256.709045645933
 30
0.0
 11
2541.724094959778
 21
1256.709045645933
 31
0.0
  0
LINE
  5
C477
330
9E05
100
AcDbEntity
  8
0
 48
3.0
100
AcDbLine
 10
2529.224094959778
 20
1481.709580536094
 30
0.0
 11
2529.224094959778
 21
1281.709045645933
 31
0.0
  0
SOLID
  5
C478
330
9E05
100
AcDbEntity
  8
0
 48
3.0
100
AcDbTrace
 10
2525.057428293111
 20
1481.709580536094
 30
0.0
 11
2533.390761626444
 21
1481.709580536094
 31
0.0
 12
2529.224094959778
 22
1506.709580536094
 32
0.0
 13
2529.224094959778
 23
1506.709580536094
 33
0.0
  0
SOLID
  5
C479
330
9E05
100
AcDbEntity
  8
0
 48
3.0
100
AcDbTrace
 10
2525.057428293111
 20
1281.709045645933
 30
0.0
 11
2533.390761626444
 21
1281.709045645933
 31
0.0
 12
2529.224094959778
 22
1256.709045645933
 32
0.0
 13
2529.224094959778
 23
1256.709045645933
 33
0.0
  0
MTEXT
  5
C47A
330
9E05
100
AcDbEntity
  8
0
 48
3.0
100
AcDbMText
 10
2509.176475912158
 20
1381.709313091014
 30
0.0
 40
25.0
 41
0.0
 71
     5
 72
     1
  1
\A1;10"(250{\H20.000000;±2})
 11
0.0000000000000001
 21
1.0
 31
0.0
 73
     1
 44
1.0
1001
ACAD
1000
MTEXTBEGIN
1070
    73
1070
     1
1070
    44
1040
1.0
1070
    74
1070
     0
1000
MTEXTEND
  0
POINT
  5
C47B
330
9E05
100
AcDbEntity
  8
Defpoints
 62
     0
 48
3.0
100
AcDbPoint
 10
2382.526010985787
 20
1506.709580536094
 30
0.0
  0
POINT
  5
C47C
330
9E05
100
AcDbEntity
  8
Defpoints
 62
     0
 48
3.0
100
AcDbPoint
 10
2331.464255414541
 20
1256.709045645933
 30
0.0
  0
POINT
  5
C47D
330
9E05
100
AcDbEntity
  8
Defpoints
 62
     0
 48
3.0
100
AcDbPoint
 10
2529.224094959778
 20
1256.709045645933
 30
0.0
  0
ENDBLK
  5
9E10
330
9E05
100
AcDbEntity
  8
0
 48
3.0
100
AcDbBlockEnd
  0
BLOCK
  5
9E1B
330
9E11
100
AcDbEntity
  8
0
 48
3.0
100
AcDbBlockBegin
  2
*D2
 70
     1
 10
0.0
 20
0.0
 30
0.0
  3
*D2
  1

  0
LINE
  5
C46C
330
9E11
100
AcDbEntity
  8
0
 48
3.0
100
AcDbLine
 10
1581.026010985787
 20
593.9600017762453
 30
0.0
 11
1516.322331408318
 21
593.9600017762453
 31
0.0
  0
LINE
  5
C46D
330
9E11
100
AcDbEntity
  8
0
 48
3.0
100
AcDbLine
 10
1581.026010985787
 20
999.960001776245
 30
0.0
 11
1516.322331408318
 21
999.960001776245
 31
0.0
  0
LINE
  5
C46E
330
9E11
100
AcDbEntity
  8
0
 48
3.0
100
AcDbLine
 10
1528.822331408318
 20
618.9600017762453
 30
0.0
 11
1528.822331408318
 21
974.960001776245
 31
0.0
  0
SOLID
  5
C46F
330
9E11
100
AcDbEntity
  8
0
 48
3.0
100
AcDbTrace
 10
1524.655664741651
 20
618.9600017762453
 30
0.0
 11
1532.988998074985
 21
618.9600017762453
 31
0.0
 12
1528.822331408318
 22
593.9600017762453
 32
0.0
 13
1528.822331408318
 23
593.9600017762453
 33
0.0
  0
SOLID
  5
C470
330
9E11
100
AcDbEntity
  8
0
 48
3.0
100
AcDbTrace
 10
1524.655664741651
 20
974.960001776245
 30
0.0
 11
1532.988998074985
 21
974.960001776245
 31
0.0
 12
1528.822331408318
 22
999.960001776245
 32
0.0
 13
1528.822331408318
 23
999.960001776245
 33
0.0
  0
MTEXT
  5
C471
330
9E11
100
AcDbEntity
  8
0
 48
3.0
100
AcDbMText
 10
1508.774712360699
 20
796.9600017762453
 30
0.0
 40
25.0
 41
0.0
 71
     5
 72
     1
  1
\A1;16"(406{\H20.000000;±2})
 11
0.0000000000000001
 21
1.0
 31
0.0
 73
     1
 44
1.0
1001
ACAD
1000
MTEXTBEGIN
1070
    73
1070
     1
1070
    44
1040
1.0
1070
    74
1070
     0
1000
MTEXTEND
  0
POINT
  5
C472
330
9E11
100
AcDbEntity
  8
Defpoints
 62
     0
 48
3.0
100
AcDbPoint
 10
1593.026010985787
 20
593.9600017762453
 30
0.0
  0
POINT
  5
C473
330
9E11
100
AcDbEntity
  8
Defpoints
 62
     0
 48
3.0
100
AcDbPoint
 10
1593.026010985787
 20
999.960001776245
 30
0.0
  0
POINT
  5
C474
330
9E11
100
AcDbEntity
  8
Defpoints
 62
     0
 48
3.0
100
AcDbPoint
 10
1528.822331408318
 20
999.960001776245
 30
0.0
  0
ENDBLK
  5
9E1C
330
9E11
100
AcDbEntity
  8
0
 48
3.0
100
AcDbBlockEnd
  0
BLOCK
  5
9E5C
330
9E52
100
AcDbEntity
  8
0
 48
3.0
100
AcDbBlockBegin
  2
*D3
 70
     1
 10
0.0
 20
0.0
 30
0.0
  3
*D3
  1

  0
LINE
  5
C463
330
9E52
100
AcDbEntity
  8
0
 48
3.0
100
AcDbLine
 10
1569.026010985787
 20
514.4999660960047
 30
0.0
 11
1569.026010985787
 21
393.4779200327266
 31
0.0
  0
LINE
  5
C464
330
9E52
100
AcDbEntity
  8
0
 48
3.0
100
AcDbLine
 10
2404.026010985787
 20
530.0258461687171
 30
0.0
 11
2404.026010985787
 21
393.4779200327266
 31
0.0
  0
LINE
  5
C465
330
9E52
100
AcDbEntity
  8
0
 48
3.0
100
AcDbLine
 10
1594.026010985787
 20
405.9779200327265
 30
0.0
 11
2379.026010985787
 21
405.9779200327265
 31
0.0
  0
SOLID
  5
C466
330
9E52
100
AcDbEntity
  8
0
 48
3.0
100
AcDbTrace
 10
1594.026010985787
 20
410.1445866993932
 30
0.0
 11
1594.026010985787
 21
401.8112533660598
 31
0.0
 12
1569.026010985787
 22
405.9779200327265
 32
0.0
 13
1569.026010985787
 23
405.9779200327265
 33
0.0
  0
SOLID
  5
C467
330
9E52
100
AcDbEntity
  8
0
 48
3.0
100
AcDbTrace
 10
2379.026010985787
 20
410.1445866993932
 30
0.0
 11
2379.026010985787
 21
401.8112533660598
 31
0.0
 12
2404.026010985787
 22
405.9779200327265
 32
0.0
 13
2404.026010985787
 23
405.9779200327265
 33
0.0
  0
MTEXT
  5
C468
330
9E52
100
AcDbEntity
  8
0
 48
3.0
100
AcDbMText
 10
1980.467171096271
 20
431.5612533660599
 30
0.0
 40
25.0
 41
0.0
 71
     5
 72
     1
  1
\A1;\A1;32{\H0.7x;\S7/8;}"(835{\H20.000000;±2})
 73
     1
 44
1.0
1001
ACAD
1000
MTEXTBEGIN
1070
    73
1070
     1
1070
    44
1040
1.0
1070
    74
1070
     0
1000
MTEXTEND
  0
POINT
  5
C469
330
9E52
100
AcDbEntity
  8
Defpoints
 62
     0
 48
3.0
100
AcDbPoint
 10
1569.026010985787
 20
526.4999660960048
 30
0.0
  0
POINT
  5
C46A
330
9E52
100
AcDbEntity
  8
Defpoints
 62
     0
 48
3.0
100
AcDbPoint
 10
2404.026010985787
 20
542.0258461687171
 30
0.0
  0
POINT
  5
C46B
330
9E52
100
AcDbEntity
  8
Defpoints
 62
     0
 48
3.0
100
AcDbPoint
 10
2404.026010985787
 20
405.9779200327265
 30
0.0
  0
ENDBLK
  5
9E5D
330
9E52
100
AcDbEntity
  8
0
 48
3.0
100
AcDbBlockEnd
  0
BLOCK
  5
9E6C
330
9E66
100
AcDbEntity
  8
0
 48
3.0
100
AcDbBlockBegin
  2
*D4
 70
     1
 10
0.0
 20
0.0
 30
0.0
  3
*D4
  1

  0
LINE
  5
C45E
330
9E66
100
AcDbEntity
  8
0
 48
3.0
100
AcDbLine
 10
1971.900565236898
 20
822.7081613249932
 30
0.0
 11
1888.654410102562
 21
855.5028072981651
 31
0.0
  0
MTEXT
  5
C45F
330
9E66
100
AcDbEntity
  8
0
 48
3.0
100
AcDbMText
 10
1946.948223850174
 20
847.3191009527285
 30
0.0
 40
25.0
 41
0.0
 71
     5
 72
     1
  1
\A1;{\fSymbol|b0|i0|c2|p18;F90}
 11
0.9304057016682182
 21
-0.366531349686859
 31
0.0
 73
     1
 44
1.0
1001
ACAD
1000
MTEXTBEGIN
1070
    73
1070
     1
1070
    44
1040
1.0
1070
    74
1070
     0
1000
MTEXTEND
  0
SOLID
  5
C460
330
9E66
100
AcDbEntity
  8
0
 48
3.0
100
AcDbTrace
 10
1890.181624059591
 20
859.3794977217827
 30
0.0
 11
1887.127196145533
 21
851.6261168745474
 31
0.0
 12
1865.394267560857
 22
864.6660910403365
 32
0.0
 13
1865.394267560857
 23
864.6660910403365
 33
0.0
  0
POINT
  5
C461
330
9E66
100
AcDbEntity
  8
Defpoints
 62
     0
 48
3.0
100
AcDbPoint
 10
1865.394267560857
 20
864.6660910403365
 30
0.0
  0
POINT
  5
C462
330
9E66
100
AcDbEntity
  8
Defpoints
 62
     0
 48
3.0
100
AcDbPoint
 10
1781.657754410717
 20
897.653912512154
 30
0.0
  0
ENDBLK
  5
9E6D
330
9E66
100
AcDbEntity
  8
0
 48
3.0
100
AcDbBlockEnd
  0
BLOCK
  5
A494
330
A48A
100
AcDbEntity
  8
0
 48
3.0
100
AcDbBlockBegin
  2
*D5
 70
     1
 10
0.0
 20
0.0
 30
0.0
  3
*D5
  1

  0
LINE
  5
C455
330
A48A
100
AcDbEntity
  8
0
 48
3.0
100
AcDbLine
 10
2448.434889333217
 20
1506.709580536094
 30
0.0
 11
2480.869775880483
 21
1506.709580536094
 31
0.0
  0
LINE
  5
C456
330
A48A
100
AcDbEntity
  8
0
 48
3.0
100
AcDbLine
 10
2394.526010985787
 20
1276.709580536094
 30
0.0
 11
2480.869775880483
 21
1276.709580536094
 31
0.0
  0
LINE
  5
C457
330
A48A
100
AcDbEntity
  8
0
 48
3.0
100
AcDbLine
 10
2468.369775880483
 20
1481.709580536094
 30
0.0
 11
2468.369775880483
 21
1301.709580536094
 31
0.0
  0
SOLID
  5
C458
330
A48A
100
AcDbEntity
  8
0
 48
3.0
100
AcDbTrace
 10
2464.203109213817
 20
1481.709580536094
 30
0.0
 11
2472.536442547149
 21
1481.709580536094
 31
0.0
 12
2468.369775880483
 22
1506.709580536094
 32
0.0
 13
2468.369775880483
 23
1506.709580536094
 33
0.0
  0
SOLID
  5
C459
330
A48A
100
AcDbEntity
  8
0
 48
3.0
100
AcDbTrace
 10
2464.203109213817
 20
1301.709580536094
 30
0.0
 11
2472.536442547149
 21
1301.709580536094
 31
0.0
 12
2468.369775880483
 22
1276.709580536094
 32
0.0
 13
2468.369775880483
 23
1276.709580536094
 33
0.0
  0
MTEXT
  5
C45A
330
A48A
100
AcDbEntity
  8
0
 48
3.0
100
AcDbMText
 10
2448.322156832863
 20
1391.709580536094
 30
0.0
 40
25.0
 41
0.0
 71
     5
 72
     1
  1
\A1;9"(230)
 11
0.0000000000000001
 21
1.0
 31
0.0
 73
     1
 44
1.0
1001
ACAD
1000
MTEXTBEGIN
1070
    73
1070
     1
1070
    44
1040
1.0
1070
    74
1070
     0
1000
MTEXTEND
  0
POINT
  5
C45B
330
A48A
100
AcDbEntity
  8
Defpoints
 62
     0
 48
3.0
100
AcDbPoint
 10
2436.434889333217
 20
1506.709580536094
 30
0.0
  0
POINT
  5
C45C
330
A48A
100
AcDbEntity
  8
Defpoints
 62
     0
 48
3.0
100
AcDbPoint
 10
2382.526010985787
 20
1276.709580536094
 30
0.0
  0
POINT
  5
C45D
330
A48A
100
AcDbEntity
  8
Defpoints
 62
     0
 48
3.0
100
AcDbPoint
 10
2468.369775880483
 20
1276.709580536094
 30
0.0
  0
ENDBLK
  5
A495
330
A48A
100
AcDbEntity
  8
0
 48
3.0
100
AcDbBlockEnd
  0
BLOCK
  5
A90C
330
A902
100
AcDbEntity
  8
0
 48
3.0
100
AcDbBlockBegin
  2
*D6
 70
     1
 10
0.0
 20
0.0
 30
0.0
  3
*D6
  1

  0
LINE
  5
C44C
330
A902
100
AcDbEntity
  8
0
 48
3.0
100
AcDbLine
 10
1510.615329347688
 20
1037.360001776245
 30
0.0
 11
1383.807584053893
 21
1037.360001776245
 31
0.0
  0
LINE
  5
C44D
330
A902
100
AcDbEntity
  8
0
 48
3.0
100
AcDbLine
 10
2071.730625252921
 20
510.3649509456035
 30
0.0
 11
1383.807584053892
 21
510.3649509456038
 31
0.0
  0
LINE
  5
C44E
330
A902
100
AcDbEntity
  8
0
 48
3.0
100
AcDbLine
 10
1396.307584053892
 20
1012.360001776245
 30
0.0
 11
1396.307584053892
 21
535.3649509456037
 31
0.0
  0
SOLID
  5
C44F
330
A902
100
AcDbEntity
  8
0
 48
3.0
100
AcDbTrace
 10
1392.140917387226
 20
1012.360001776245
 30
0.0
 11
1400.474250720559
 21
1012.360001776245
 31
0.0
 12
1396.307584053892
 22
1037.360001776245
 32
0.0
 13
1396.307584053892
 23
1037.360001776245
 33
0.0
  0
SOLID
  5
C450
330
A902
100
AcDbEntity
  8
0
 48
3.0
100
AcDbTrace
 10
1392.140917387226
 20
535.3649509456037
 30
0.0
 11
1400.474250720559
 21
535.3649509456037
 31
0.0
 12
1396.307584053892
 22
510.3649509456038
 32
0.0
 13
1396.307584053892
 23
510.3649509456038
 33
0.0
  0
MTEXT
  5
C451
330
A902
100
AcDbEntity
  8
0
 48
3.0
100
AcDbMText
 10
1370.724250720559
 20
773.8624763609248
 30
0.0
 40
25.0
 41
0.0
 71
     5
 72
     1
  1
\A1;\A1;20{\H0.7x;\S3/4;}"(527{\H20.000000;±2})
 11
0.0000000000000001
 21
1.0
 31
0.0
 73
     1
 44
1.0
1001
ACAD
1000
MTEXTBEGIN
1070
    73
1070
     1
1070
    44
1040
1.0
1070
    74
1070
     0
1000
MTEXTEND
  0
POINT
  5
C452
330
A902
100
AcDbEntity
  8
Defpoints
 62
     0
 48
3.0
100
AcDbPoint
 10
1522.615329347688
 20
1037.360001776245
 30
0.0
  0
POINT
  5
C453
330
A902
100
AcDbEntity
  8
Defpoints
 62
     0
 48
3.0
100
AcDbPoint
 10
2083.730625252921
 20
510.3649509456035
 30
0.0
  0
POINT
  5
C454
330
A902
100
AcDbEntity
  8
Defpoints
 62
     0
 48
3.0
100
AcDbPoint
 10
1396.307584053892
 20
510.3649509456038
 30
0.0
  0
ENDBLK
  5
A90D
330
A902
100
AcDbEntity
  8
0
 48
3.0
100
AcDbBlockEnd
  0
BLOCK
  5
AA17
330
AA0D
100
AcDbEntity
  8
0
 48
3.0
100
AcDbBlockBegin
  2
*D7
 70
     1
 10
0.0
 20
0.0
 30
0.0
  3
*D7
  1

  0
LINE
  5
C443
330
AA0D
100
AcDbEntity
  8
0
 48
3.0
100
AcDbLine
 10
2072.026010985788
 20
996.9600017762454
 30
0.0
 11
2072.026010985788
 21
1103.601037328281
 31
0.0
  0
LINE
  5
C444
330
AA0D
100
AcDbEntity
  8
0
 48
3.0
100
AcDbLine
 10
2368.026010985787
 20
996.9600017762454
 30
0.0
 11
2368.026010985787
 21
1103.601037328281
 31
0.0
  0
LINE
  5
C445
330
AA0D
100
AcDbEntity
  8
0
 48
3.0
100
AcDbLine
 10
2097.026010985788
 20
1091.101037328281
 30
0.0
 11
2343.026010985787
 21
1091.101037328281
 31
0.0
  0
SOLID
  5
C446
330
AA0D
100
AcDbEntity
  8
0
 48
3.0
100
AcDbTrace
 10
2097.026010985788
 20
1095.267703994948
 30
0.0
 11
2097.026010985788
 21
1086.934370661615
 31
0.0
 12
2072.026010985788
 22
1091.101037328281
 32
0.0
 13
2072.026010985788
 23
1091.101037328281
 33
0.0
  0
SOLID
  5
C447
330
AA0D
100
AcDbEntity
  8
0
 48
3.0
100
AcDbTrace
 10
2343.026010985787
 20
1095.267703994948
 30
0.0
 11
2343.026010985787
 21
1086.934370661615
 31
0.0
 12
2368.026010985787
 22
1091.101037328281
 32
0.0
 13
2368.026010985787
 23
1091.101037328281
 33
0.0
  0
MTEXT
  5
C448
330
AA0D
100
AcDbEntity
  8
0
 48
3.0
100
AcDbMText
 10
2212.696049040152
 20
1116.684370661615
 30
0.0
 40
25.0
 41
0.0
 71
     5
 72
     1
  1
\A1;\A1;11{\H0.7x;\S2/3;}"(296{\H20.000000;±2})
 73
     1
 44
1.0
1001
ACAD
1000
MTEXTBEGIN
1070
    73
1070
     1
1070
    44
1040
1.0
1070
    74
1070
     0
1000
MTEXTEND
  0
POINT
  5
C449
330
AA0D
100
AcDbEntity
  8
Defpoints
 62
     0
 48
3.0
100
AcDbPoint
 10
2072.026010985788
 20
984.9600017762455
 30
0.0
  0
POINT
  5
C44A
330
AA0D
100
AcDbEntity
  8
Defpoints
 62
     0
 48
3.0
100
AcDbPoint
 10
2368.026010985787
 20
984.9600017762455
 30
0.0
  0
POINT
  5
C44B
330
AA0D
100
AcDbEntity
  8
Defpoints
 62
     0
 48
3.0
100
AcDbPoint
 10
2368.026010985787
 20
1091.101037328281
 30
0.0
  0
ENDBLK
  5
AA18
330
AA0D
100
AcDbEntity
  8
0
 48
3.0
100
AcDbBlockEnd
  0
BLOCK
  5
AA2F
330
AA25
100
AcDbEntity
  8
0
 48
3.0
100
AcDbBlockBegin
  2
*D8
 70
     1
 10
0.0
 20
0.0
 30
0.0
  3
*D8
  1

  0
LINE
  5
C43A
330
AA25
100
AcDbEntity
  8
0
 48
3.0
100
AcDbLine
 10
1605.026010985787
 20
996.960001776245
 30
0.0
 11
1605.026010985787
 21
1110.048490671364
 31
0.0
  0
LINE
  5
C43B
330
AA25
100
AcDbEntity
  8
0
 48
3.0
100
AcDbLine
 10
2042.026010985788
 20
996.960001776245
 30
0.0
 11
2042.026010985788
 21
1110.048490671364
 31
0.0
  0
LINE
  5
C43C
330
AA25
100
AcDbEntity
  8
0
 48
3.0
100
AcDbLine
 10
1630.026010985787
 20
1097.548490671364
 30
0.0
 11
2017.026010985787
 21
1097.548490671364
 31
0.0
  0
SOLID
  5
C43D
330
AA25
100
AcDbEntity
  8
0
 48
3.0
100
AcDbTrace
 10
1630.026010985787
 20
1101.715157338031
 30
0.0
 11
1630.026010985787
 21
1093.381824004698
 31
0.0
 12
1605.026010985787
 22
1097.548490671364
 32
0.0
 13
1605.026010985787
 23
1097.548490671364
 33
0.0
  0
SOLID
  5
C43E
330
AA25
100
AcDbEntity
  8
0
 48
3.0
100
AcDbTrace
 10
2017.026010985787
 20
1101.715157338031
 30
0.0
 11
2017.026010985787
 21
1093.381824004698
 31
0.0
 12
2042.026010985788
 22
1097.548490671364
 32
0.0
 13
2042.026010985788
 23
1097.548490671364
 33
0.0
  0
MTEXT
  5
C43F
330
AA25
100
AcDbEntity
  8
0
 48
3.0
100
AcDbMText
 10
1823.526010985787
 20
1123.131824004698
 30
0.0
 40
25.0
 41
0.0
 71
     5
 72
     1
  1
\A1;\A1;17{\H0.7x;\S1/5;}"(437{\H20.000000;±2})
 73
     1
 44
1.0
1001
ACAD
1000
MTEXTBEGIN
1070
    73
1070
     1
1070
    44
1040
1.0
1070
    74
1070
     0
1000
MTEXTEND
  0
POINT
  5
C440
330
AA25
100
AcDbEntity
  8
Defpoints
 62
     0
 48
3.0
100
AcDbPoint
 10
1605.026010985787
 20
984.9600017762449
 30
0.0
  0
POINT
  5
C441
330
AA25
100
AcDbEntity
  8
Defpoints
 62
     0
 48
3.0
100
AcDbPoint
 10
2042.026010985788
 20
984.9600017762449
 30
0.0
  0
POINT
  5
C442
330
AA25
100
AcDbEntity
  8
Defpoints
 62
     0
 48
3.0
100
AcDbPoint
 10
2042.026010985788
 20
1097.548490671364
 30
0.0
  0
ENDBLK
  5
AA30
330
AA25
100
AcDbEntity
  8
0
 48
3.0
100
AcDbBlockEnd
  0
BLOCK
  5
B386
330
B37B
100
AcDbEntity
  8
0
 48
3.0
100
AcDbBlockBegin
  2
*D9
 70
     1
 10
0.0
 20
0.0
 30
0.0
  3
*D9
  1

  0
LINE
  5
C430
330
B37B
100
AcDbEntity
  8
0
 48
3.0
100
AcDbLine
 10
929.7709073781925
 20
1506.709580536094
 30
0.0
 11
990.4384920297653
 21
1506.709580536094
 31
0.0
  0
LINE
  5
C431
330
B37B
100
AcDbEntity
  8
0
 48
3.0
100
AcDbLine
 10
929.7709073781925
 20
1456.709580536094
 30
0.0
 11
990.4384920297653
 21
1456.709580536094
 31
0.0
  0
LINE
  5
C432
330
B37B
100
AcDbEntity
  8
0
 48
3.0
100
AcDbLine
 10
977.9384920297653
 20
1531.709580536094
 30
0.0
 11
977.9384920297653
 21
1556.709580536094
 31
0.0
  0
LINE
  5
C433
330
B37B
100
AcDbEntity
  8
0
 48
3.0
100
AcDbLine
 10
977.9384920297653
 20
1431.709580536094
 30
0.0
 11
977.9384920297653
 21
1406.709580536094
 31
0.0
  0
SOLID
  5
C434
330
B37B
100
AcDbEntity
  8
0
 48
3.0
100
AcDbTrace
 10
973.7718253630985
 20
1531.709580536094
 30
0.0
 11
982.1051586964319
 21
1531.709580536094
 31
0.0
 12
977.9384920297653
 22
1506.709580536094
 32
0.0
 13
977.9384920297653
 23
1506.709580536094
 33
0.0
  0
SOLID
  5
C435
330
B37B
100
AcDbEntity
  8
0
 48
3.0
100
AcDbTrace
 10
973.7718253630985
 20
1431.709580536094
 30
0.0
 11
982.1051586964319
 21
1431.709580536094
 31
0.0
 12
977.9384920297653
 22
1456.709580536094
 32
0.0
 13
977.9384920297653
 23
1456.709580536094
 33
0.0
  0
MTEXT
  5
C436
330
B37B
100
AcDbEntity
  8
0
 48
3.0
100
AcDbMText
 10
964.438492029765
 20
1481.709580536094
 30
0.0
 40
25.0
 41
0.0
 71
     5
 72
     1
  1
\A1;50
 11
0.0000000000000001
 21
1.0
 31
0.0
 73
     1
 44
1.0
1001
ACAD
1000
MTEXTBEGIN
1070
    73
1070
     1
1070
    44
1040
1.0
1070
    74
1070
     0
1000
MTEXTEND
  0
POINT
  5
C437
330
B37B
100
AcDbEntity
  8
Defpoints
 62
     0
 48
3.0
100
AcDbPoint
 10
917.7709073781924
 20
1506.709580536094
 30
0.0
  0
POINT
  5
C438
330
B37B
100
AcDbEntity
  8
Defpoints
 62
     0
 48
3.0
100
AcDbPoint
 10
917.7709073781924
 20
1456.709580536094
 30
0.0
  0
POINT
  5
C439
330
B37B
100
AcDbEntity
  8
Defpoints
 62
     0
 48
3.0
100
AcDbPoint
 10
977.9384920297653
 20
1456.709580536094
 30
0.0
  0
ENDBLK
  5
B387
330
B37B
100
AcDbEntity
  8
0
 48
3.0
100
AcDbBlockEnd
  0
BLOCK
  5
B39B
330
B391
100
AcDbEntity
  8
0
 48
3.0
100
AcDbBlockBegin
  2
*D10
 70
     1
 10
0.0
 20
0.0
 30
0.0
  3
*D10
  1

  0
LINE
  5
C427
330
B391
100
AcDbEntity
  8
0
 48
3.0
100
AcDbLine
 10
762.9054988492823
 20
1218.086964342584
 30
0.0
 11
762.9054988492823
 21
1153.002949881165
 31
0.0
  0
LINE
  5
C428
330
B391
100
AcDbEntity
  8
0
 48
3.0
100
AcDbLine
 10
882.9091508724772
 20
1260.903543212413
 30
0.0
 11
882.9091508724772
 21
1153.002949881165
 31
0.0
  0
LINE
  5
C429
330
B391
100
AcDbEntity
  8
0
 48
3.0
100
AcDbLine
 10
787.9054988492823
 20
1165.502949881165
 30
0.0
 11
857.9091508724772
 21
1165.502949881165
 31
0.0
  0
SOLID
  5
C42A
330
B391
100
AcDbEntity
  8
0
 48
3.0
100
AcDbTrace
 10
787.9054988492823
 20
1169.669616547832
 30
0.0
 11
787.9054988492823
 21
1161.336283214499
 31
0.0
 12
762.9054988492823
 22
1165.502949881165
 32
0.0
 13
762.9054988492823
 23
1165.502949881165
 33
0.0
  0
SOLID
  5
C42B
330
B391
100
AcDbEntity
  8
0
 48
3.0
100
AcDbTrace
 10
857.9091508724772
 20
1169.669616547832
 30
0.0
 11
857.9091508724772
 21
1161.336283214499
 31
0.0
 12
882.9091508724772
 22
1165.502949881165
 32
0.0
 13
882.9091508724772
 23
1165.502949881165
 33
0.0
  0
MTEXT
  5
C42C
330
B391
100
AcDbEntity
  8
0
 48
3.0
100
AcDbMText
 10
822.9073248608798
 20
1179.002949881165
 30
0.0
 40
25.0
 41
0.0
 71
     5
 72
     1
  1
\A1;120
 73
     1
 44
1.0
1001
ACAD
1000
MTEXTBEGIN
1070
    73
1070
     1
1070
    44
1040
1.0
1070
    74
1070
     0
1000
MTEXTEND
  0
POINT
  5
C42D
330
B391
100
AcDbEntity
  8
Defpoints
 62
     0
 48
3.0
100
AcDbPoint
 10
762.9054988492823
 20
1230.086964342584
 30
0.0
  0
POINT
  5
C42E
330
B391
100
AcDbEntity
  8
Defpoints
 62
     0
 48
3.0
100
AcDbPoint
 10
882.9091508724772
 20
1272.903543212413
 30
0.0
  0
POINT
  5
C42F
330
B391
100
AcDbEntity
  8
Defpoints
 62
     0
 48
3.0
100
AcDbPoint
 10
882.9091508724772
 20
1165.502949881165
 30
0.0
  0
ENDBLK
  5
B39C
330
B391
100
AcDbEntity
  8
0
 48
3.0
100
AcDbBlockEnd
  0
BLOCK
  5
B4D8
330
B4D5
100
AcDbEntity
  8
0
 48
3.0
100
AcDbBlockBegin
  2
A$C3C4B3ADC
 70
     0
 10
0.0
 20
0.0
 30
0.0
  3
A$C3C4B3ADC
  1

  0
LINE
  5
B4D6
330
B4D5
100
AcDbEntity
  8
虚线
 48
25.0
100
AcDbLine
 10
399.4835585296089
 20
-0.0000000000001137
 30
0.0
 11
418.0835585296085
 21
-37.44279008276419
 31
0.0
  0
LINE
  5
B4D7
330
B4D5
100
AcDbEntity
  8
虚线
 48
25.0
100
AcDbLine
 10
-399.3147604322712
 20
-0.0000000000001137
 30
0.0
 11
-417.9147604322712
 21
-37.60990335618771
 31
0.0
  0
ENDBLK
  5
B4D9
330
B4D5
100
AcDbEntity
  8
0
 48
3.0
100
AcDbBlockEnd
  0
BLOCK
  5
BA4F
330
BA45
100
AcDbEntity
  8
0
 48
3.0
100
AcDbBlockBegin
  2
*D12
 70
     1
 10
0.0
 20
0.0
 30
0.0
  3
*D12
  1

  0
LINE
  5
C41E
330
BA45
100
AcDbEntity
  8
0
 48
3.0
100
AcDbLine
 10
1738.005125250496
 20
881.1600017762453
 30
0.0
 11
1633.392160535718
 21
881.1600017762453
 31
0.0
  0
LINE
  5
C41F
330
BA45
100
AcDbEntity
  8
0
 48
3.0
100
AcDbLine
 10
1738.005125250496
 20
1001.160001776245
 30
0.0
 11
1633.392160535718
 21
1001.160001776245
 31
0.0
  0
LINE
  5
C420
330
BA45
100
AcDbEntity
  8
0
 48
3.0
100
AcDbLine
 10
1645.892160535718
 20
906.1600017762453
 30
0.0
 11
1645.892160535718
 21
976.1600017762448
 31
0.0
  0
SOLID
  5
C421
330
BA45
100
AcDbEntity
  8
0
 48
3.0
100
AcDbTrace
 10
1641.725493869051
 20
906.1600017762453
 30
0.0
 11
1650.058827202385
 21
906.1600017762453
 31
0.0
 12
1645.892160535718
 22
881.1600017762453
 32
0.0
 13
1645.892160535718
 23
881.1600017762453
 33
0.0
  0
SOLID
  5
C422
330
BA45
100
AcDbEntity
  8
0
 48
3.0
100
AcDbTrace
 10
1641.725493869051
 20
976.1600017762448
 30
0.0
 11
1650.058827202385
 21
976.1600017762448
 31
0.0
 12
1645.892160535718
 22
1001.160001776245
 32
0.0
 13
1645.892160535718
 23
1001.160001776245
 33
0.0
  0
MTEXT
  5
C423
330
BA45
100
AcDbEntity
  8
0
 48
3.0
100
AcDbMText
 10
1632.392160535718
 20
941.1600017762452
 30
0.0
 40
25.0
 41
0.0
 71
     5
 72
     1
  1
\A1;120
 11
0.0000000000000001
 21
1.0
 31
0.0
 73
     1
 44
1.0
1001
ACAD
1000
MTEXTBEGIN
1070
    73
1070
     1
1070
    44
1040
1.0
1070
    74
1070
     0
1000
MTEXTEND
  0
POINT
  5
C424
330
BA45
100
AcDbEntity
  8
Defpoints
 62
     0
 48
3.0
100
AcDbPoint
 10
1750.005125250496
 20
881.1600017762453
 30
0.0
  0
POINT
  5
C425
330
BA45
100
AcDbEntity
  8
Defpoints
 62
     0
 48
3.0
100
AcDbPoint
 10
1750.005125250496
 20
1001.160001776245
 30
0.0
  0
POINT
  5
C426
330
BA45
100
AcDbEntity
  8
Defpoints
 62
     0
 48
3.0
100
AcDbPoint
 10
1645.892160535718
 20
1001.160001776245
 30
0.0
  0
ENDBLK
  5
BA50
330
BA45
100
AcDbEntity
  8
0
 48
3.0
100
AcDbBlockEnd
  0
BLOCK
  5
BA6B
330
BA65
100
AcDbEntity
  8
0
 48
3.0
100
AcDbBlockBegin
  2
*D13
 70
     1
 10
0.0
 20
0.0
 30
0.0
  3
*D13
  1

  0
LINE
  5
C419
330
BA65
100
AcDbEntity
  8
0
 48
3.0
100
AcDbLine
 10
1679.363815895695
 20
1340.296384298215
 30
0.0
 11
1606.147821864275
 21
1279.309266192436
 31
0.0
  0
MTEXT
  5
C41A
330
BA65
100
AcDbEntity
  8
0
 48
3.0
100
AcDbMText
 10
1646.630052429127
 20
1330.599934562462
 30
0.0
 40
25.0
 41
0.0
 71
     5
 72
     1
  1
\A1;R15
 11
0.7683565380478575
 21
0.6400220546505499
 31
0.0
 73
     1
 44
1.0
1001
ACAD
1000
MTEXTBEGIN
1070
    73
1070
     1
1070
    44
1040
1.0
1070
    74
1070
     0
1000
MTEXTEND
  0
SOLID
  5
C41B
330
BA65
100
AcDbEntity
  8
0
 48
3.0
100
AcDbTrace
 10
1603.481063303231
 20
1282.510751767636
 30
0.0
 11
1608.814580425319
 21
1276.107780617237
 31
0.0
 12
1586.938908413078
 22
1263.308714826173
 32
0.0
 13
1586.938908413078
 23
1263.308714826173
 33
0.0
  0
POINT
  5
C41C
330
BA65
100
AcDbEntity
  8
Defpoints
 62
     0
 48
3.0
100
AcDbPoint
 10
1586.938908413078
 20
1263.308714826173
 30
0.0
  0
POINT
  5
C41D
330
BA65
100
AcDbEntity
  8
Defpoints
 62
     0
 48
3.0
100
AcDbPoint
 10
1598.464256483799
 20
1272.909045645933
 30
0.0
  0
ENDBLK
  5
BA6C
330
BA65
100
AcDbEntity
  8
0
 48
3.0
100
AcDbBlockEnd
  0
BLOCK
  5
BB9E
330
BB94
100
AcDbEntity
  8
0
 48
3.0
100
AcDbBlockBegin
  2
*D14
 70
     1
 10
0.0
 20
0.0
 30
0.0
  3
*D14
  1

  0
LINE
  5
C410
330
BB94
100
AcDbEntity
  8
0
 48
3.0
100
AcDbLine
 10
390.7715760661261
 20
1518.709580536094
 30
0.0
 11
390.7715760661261
 21
1601.461462862072
 31
0.0
  0
LINE
  5
C411
330
BB94
100
AcDbEntity
  8
0
 48
3.0
100
AcDbLine
 10
917.7709073781924
 20
1518.709580536094
 30
0.0
 11
917.7709073781924
 21
1601.461462862072
 31
0.0
  0
LINE
  5
C412
330
BB94
100
AcDbEntity
  8
0
 48
3.0
100
AcDbLine
 10
415.771576066126
 20
1588.961462862072
 30
0.0
 11
892.7709073781924
 21
1588.961462862072
 31
0.0
  0
SOLID
  5
C413
330
BB94
100
AcDbEntity
  8
0
 48
3.0
100
AcDbTrace
 10
415.771576066126
 20
1593.128129528739
 30
0.0
 11
415.771576066126
 21
1584.794796195405
 31
0.0
 12
390.7715760661261
 22
1588.961462862072
 32
0.0
 13
390.7715760661261
 23
1588.961462862072
 33
0.0
  0
SOLID
  5
C414
330
BB94
100
AcDbEntity
  8
0
 48
3.0
100
AcDbTrace
 10
892.7709073781924
 20
1593.128129528739
 30
0.0
 11
892.7709073781924
 21
1584.794796195405
 31
0.0
 12
917.7709073781924
 22
1588.961462862072
 32
0.0
 13
917.7709073781924
 23
1588.961462862072
 33
0.0
  0
MTEXT
  5
C415
330
BB94
100
AcDbEntity
  8
0
 48
3.0
100
AcDbMText
 10
654.2712417221593
 20
1614.544796195405
 30
0.0
 40
25.0
 41
0.0
 71
     5
 72
     1
  1
\A1;\A1;20{\H0.7x;\S3/4;}"(527{\H20.000000;±2})
 73
     1
 44
1.0
1001
ACAD
1000
MTEXTBEGIN
1070
    73
1070
     1
1070
    44
1040
1.0
1070
    74
1070
     0
1000
MTEXTEND
  0
POINT
  5
C416
330
BB94
100
AcDbEntity
  8
Defpoints
 62
     0
 48
3.0
100
AcDbPoint
 10
390.7715760661261
 20
1506.709580536094
 30
0.0
  0
POINT
  5
C417
330
BB94
100
AcDbEntity
  8
Defpoints
 62
     0
 48
3.0
100
AcDbPoint
 10
917.7709073781924
 20
1506.709580536094
 30
0.0
  0
POINT
  5
C418
330
BB94
100
AcDbEntity
  8
Defpoints
 62
     0
 48
3.0
100
AcDbPoint
 10
917.7709073781924
 20
1588.961462862072
 30
0.0
  0
ENDBLK
  5
BB9F
330
BB94
100
AcDbEntity
  8
0
 48
3.0
100
AcDbBlockEnd
  0
BLOCK
  5
BBB6
330
BBAC
100
AcDbEntity
  8
0
 48
3.0
100
AcDbBlockBegin
  2
*D15
 70
     1
 10
0.0
 20
0.0
 30
0.0
  3
*D15
  1

  0
LINE
  5
C407
330
BBAC
100
AcDbEntity
  8
0
 48
3.0
100
AcDbLine
 10
1547.526010985787
 20
1518.709580536094
 30
0.0
 11
1547.526010985787
 21
1600.270627925343
 31
0.0
  0
LINE
  5
C408
330
BBAC
100
AcDbEntity
  8
0
 48
3.0
100
AcDbLine
 10
2382.526010985787
 20
1518.709580536094
 30
0.0
 11
2382.526010985787
 21
1600.270627925343
 31
0.0
  0
LINE
  5
C409
330
BBAC
100
AcDbEntity
  8
0
 48
3.0
100
AcDbLine
 10
1572.526010985787
 20
1587.770627925343
 30
0.0
 11
2357.526010985787
 21
1587.770627925343
 31
0.0
  0
SOLID
  5
C40A
330
BBAC
100
AcDbEntity
  8
0
 48
3.0
100
AcDbTrace
 10
1572.526010985787
 20
1591.93729459201
 30
0.0
 11
1572.526010985787
 21
1583.603961258677
 31
0.0
 12
1547.526010985787
 22
1587.770627925343
 32
0.0
 13
1547.526010985787
 23
1587.770627925343
 33
0.0
  0
SOLID
  5
C40B
330
BBAC
100
AcDbEntity
  8
0
 48
3.0
100
AcDbTrace
 10
2357.526010985787
 20
1591.93729459201
 30
0.0
 11
2357.526010985787
 21
1583.603961258677
 31
0.0
 12
2382.526010985787
 22
1587.770627925343
 32
0.0
 13
2382.526010985787
 23
1587.770627925343
 33
0.0
  0
MTEXT
  5
C40C
330
BBAC
100
AcDbEntity
  8
0
 48
3.0
100
AcDbMText
 10
1965.026010985787
 20
1613.353961258676
 30
0.0
 40
25.0
 41
0.0
 71
     5
 72
     1
  1
\A1;\A1;32{\H0.7x;\S7/8;}"(835{\H20.000000;±2})
 73
     1
 44
1.0
1001
ACAD
1000
MTEXTBEGIN
1070
    73
1070
     1
1070
    44
1040
1.0
1070
    74
1070
     0
1000
MTEXTEND
  0
POINT
  5
C40D
330
BBAC
100
AcDbEntity
  8
Defpoints
 62
     0
 48
3.0
100
AcDbPoint
 10
1547.526010985787
 20
1506.709580536094
 30
0.0
  0
POINT
  5
C40E
330
BBAC
100
AcDbEntity
  8
Defpoints
 62
     0
 48
3.0
100
AcDbPoint
 10
2382.526010985787
 20
1506.709580536094
 30
0.0
  0
POINT
  5
C40F
330
BBAC
100
AcDbEntity
  8
Defpoints
 62
     0
 48
3.0
100
AcDbPoint
 10
2382.526010985787
 20
1587.770627925343
 30
0.0
  0
ENDBLK
  5
BBB7
330
BBAC
100
AcDbEntity
  8
0
 48
3.0
100
AcDbBlockEnd
  0
BLOCK
  5
BFF5
330
BFEA
100
AcDbEntity
  8
0
 48
3.0
100
AcDbBlockBegin
  2
*D16
 70
     1
 10
0.0
 20
0.0
 30
0.0
  3
*D16
  1

  0
LINE
  5
C3FD
330
BFEA
100
AcDbEntity
  8
0
 48
3.0
100
AcDbLine
 10
2042.026010985788
 20
1085.262636702934
 30
0.0
 11
2042.026010985788
 21
1150.627115334871
 31
0.0
  0
LINE
  5
C3FE
330
BFEA
100
AcDbEntity
  8
0
 48
3.0
100
AcDbLine
 10
2072.026010985788
 20
1085.262636702934
 30
0.0
 11
2072.026010985788
 21
1150.627115334871
 31
0.0
  0
LINE
  5
C3FF
330
BFEA
100
AcDbEntity
  8
0
 48
3.0
100
AcDbLine
 10
2017.026010985787
 20
1138.127115334871
 30
0.0
 11
1992.026010985787
 21
1138.127115334871
 31
0.0
  0
LINE
  5
C400
330
BFEA
100
AcDbEntity
  8
0
 48
3.0
100
AcDbLine
 10
2097.026010985788
 20
1138.127115334871
 30
0.0
 11
2164.502201461978
 21
1138.127115334871
 31
0.0
  0
SOLID
  5
C401
330
BFEA
100
AcDbEntity
  8
0
 48
3.0
100
AcDbTrace
 10
2017.026010985787
 20
1142.293782001538
 30
0.0
 11
2017.026010985787
 21
1133.960448668205
 31
0.0
 12
2042.026010985788
 22
1138.127115334871
 32
0.0
 13
2042.026010985788
 23
1138.127115334871
 33
0.0
  0
SOLID
  5
C402
330
BFEA
100
AcDbEntity
  8
0
 48
3.0
100
AcDbTrace
 10
2097.026010985788
 20
1142.293782001538
 30
0.0
 11
2097.026010985788
 21
1133.960448668205
 31
0.0
 12
2072.026010985788
 22
1138.127115334871
 32
0.0
 13
2072.026010985788
 23
1138.127115334871
 33
0.0
  0
MTEXT
  5
C403
330
BFEA
100
AcDbEntity
  8
0
 48
3.0
100
AcDbMText
 10
2143.264106223883
 20
1151.627115334871
 30
0.0
 40
25.0
 41
0.0
 71
     5
 72
     1
  1
\A1;30
 73
     1
 44
1.0
1001
ACAD
1000
MTEXTBEGIN
1070
    73
1070
     1
1070
    44
1040
1.0
1070
    74
1070
     0
1000
MTEXTEND
  0
POINT
  5
C404
330
BFEA
100
AcDbEntity
  8
Defpoints
 62
     0
 48
3.0
100
AcDbPoint
 10
2042.026010985788
 20
1073.262636702934
 30
0.0
  0
POINT
  5
C405
330
BFEA
100
AcDbEntity
  8
Defpoints
 62
     0
 48
3.0
100
AcDbPoint
 10
2072.026010985788
 20
1073.262636702934
 30
0.0
  0
POINT
  5
C406
330
BFEA
100
AcDbEntity
  8
Defpoints
 62
     0
 48
3.0
100
AcDbPoint
 10
2072.026010985788
 20
1138.127115334871
 30
0.0
  0
ENDBLK
  5
BFF6
330
BFEA
100
AcDbEntity
  8
0
 48
3.0
100
AcDbBlockEnd
  0
BLOCK
  5
C00B
330
C001
100
AcDbEntity
  8
0
 48
3.0
100
AcDbBlockBegin
  2
*D17
 70
     1
 10
0.0
 20
0.0
 30
0.0
  3
*D17
  1

  0
LINE
  5
C3F4
330
C001
100
AcDbEntity
  8
0
 48
3.0
100
AcDbLine
 10
1530.56112987717
 20
529.3600017762456
 30
0.0
 11
1453.056514580831
 21
529.3600017762456
 31
0.0
  0
LINE
  5
C3F5
330
C001
100
AcDbEntity
  8
0
 48
3.0
100
AcDbLine
 10
1557.026010985787
 20
1037.360001776245
 30
0.0
 11
1453.056514580831
 21
1037.360001776246
 31
0.0
  0
LINE
  5
C3F6
330
C001
100
AcDbEntity
  8
0
 48
3.0
100
AcDbLine
 10
1465.556514580831
 20
554.3600017762456
 30
0.0
 11
1465.556514580831
 21
1012.360001776245
 31
0.0
  0
SOLID
  5
C3F7
330
C001
100
AcDbEntity
  8
0
 48
3.0
100
AcDbTrace
 10
1461.389847914164
 20
554.3600017762456
 30
0.0
 11
1469.723181247498
 21
554.3600017762456
 31
0.0
 12
1465.556514580831
 22
529.3600017762456
 32
0.0
 13
1465.556514580831
 23
529.3600017762456
 33
0.0
  0
SOLID
  5
C3F8
330
C001
100
AcDbEntity
  8
0
 48
3.0
100
AcDbTrace
 10
1461.389847914164
 20
1012.360001776245
 30
0.0
 11
1469.723181247498
 21
1012.360001776245
 31
0.0
 12
1465.556514580831
 22
1037.360001776246
 32
0.0
 13
1465.556514580831
 23
1037.360001776246
 33
0.0
  0
MTEXT
  5
C3F9
330
C001
100
AcDbEntity
  8
0
 48
3.0
100
AcDbMText
 10
1445.508895533212
 20
783.3600017762458
 30
0.0
 40
25.0
 41
0.0
 71
     5
 72
     1
  1
\A1;20"(508{\H20.000000;±2})
 11
0.0000000000000001
 21
1.0
 31
0.0
 73
     1
 44
1.0
1001
ACAD
1000
MTEXTBEGIN
1070
    73
1070
     1
1070
    44
1040
1.0
1070
    74
1070
     0
1000
MTEXTEND
  0
POINT
  5
C3FA
330
C001
100
AcDbEntity
  8
Defpoints
 62
     0
 48
3.0
100
AcDbPoint
 10
1542.56112987717
 20
529.3600017762456
 30
0.0
  0
POINT
  5
C3FB
330
C001
100
AcDbEntity
  8
Defpoints
 62
     0
 48
3.0
100
AcDbPoint
 10
1569.026010985787
 20
1037.360001776245
 30
0.0
  0
POINT
  5
C3FC
330
C001
100
AcDbEntity
  8
Defpoints
 62
     0
 48
3.0
100
AcDbPoint
 10
1465.556514580831
 20
1037.360001776246
 30
0.0
  0
ENDBLK
  5
C00C
330
C001
100
AcDbEntity
  8
0
 48
3.0
100
AcDbBlockEnd
  0
BLOCK
  5
C4DB
330
C4D1
100
AcDbEntity
  8
0
 48
3.0
100
AcDbBlockBegin
  2
*D18
 70
     1
 10
0.0
 20
0.0
 30
0.0
  3
*D18
  1

  0
LINE
  5
C4DD
330
C4D1
100
AcDbEntity
  8
0
 48
3.0
100
AcDbLine
 10
1605.026010985787
 20
1041.504246223805
 30
0.0
 11
1605.026010985787
 21
744.2735456084773
 31
0.0
  0
LINE
  5
C4DE
330
C4D1
100
AcDbEntity
  8
0
 48
3.0
100
AcDbLine
 10
2368.026010985787
 20
1041.504246223805
 30
0.0
 11
2368.026010985787
 21
744.2735456084773
 31
0.0
  0
LINE
  5
C4DF
330
C4D1
100
AcDbEntity
  8
0
 48
3.0
100
AcDbLine
 10
1630.026010985787
 20
756.7735456084773
 30
0.0
 11
2343.026010985787
 21
756.7735456084773
 31
0.0
  0
SOLID
  5
C4E0
330
C4D1
100
AcDbEntity
  8
0
 48
3.0
100
AcDbTrace
 10
1630.026010985787
 20
760.9402122751439
 30
0.0
 11
1630.026010985787
 21
752.6068789418107
 31
0.0
 12
1605.026010985787
 22
756.7735456084773
 32
0.0
 13
1605.026010985787
 23
756.7735456084773
 33
0.0
  0
SOLID
  5
C4E1
330
C4D1
100
AcDbEntity
  8
0
 48
3.0
100
AcDbTrace
 10
2343.026010985787
 20
760.9402122751439
 30
0.0
 11
2343.026010985787
 21
752.6068789418107
 31
0.0
 12
2368.026010985787
 22
756.7735456084773
 32
0.0
 13
2368.026010985787
 23
756.7735456084773
 33
0.0
  0
MTEXT
  5
C4E2
330
C4D1
100
AcDbEntity
  8
0
 48
3.0
100
AcDbMText
 10
1986.526010985787
 20
770.2735456084773
 30
0.0
 40
25.0
 41
0.0
 71
     5
 72
     1
  1
\A1;763
 73
     1
 44
1.0
1001
ACAD
1000
MTEXTBEGIN
1070
    73
1070
     1
1070
    44
1040
1.0
1070
    74
1070
     0
1000
MTEXTEND
  0
POINT
  5
C4E3
330
C4D1
100
AcDbEntity
  8
Defpoints
 62
     0
 48
3.0
100
AcDbPoint
 10
1605.026010985787
 20
1053.504246223805
 30
0.0
  0
POINT
  5
C4E4
330
C4D1
100
AcDbEntity
  8
Defpoints
 62
     0
 48
3.0
100
AcDbPoint
 10
2368.026010985787
 20
1053.504246223805
 30
0.0
  0
POINT
  5
C4E5
330
C4D1
100
AcDbEntity
  8
Defpoints
 62
     0
 48
3.0
100
AcDbPoint
 10
2368.026010985787
 20
756.7735456084773
 30
0.0
  0
ENDBLK
  5
C4DC
330
C4D1
100
AcDbEntity
  8
0
 48
3.0
100
AcDbBlockEnd
  0
BLOCK
  5
C4F1
330
C4E7
100
AcDbEntity
  8
0
 48
3.0
100
AcDbBlockBegin
  2
*D19
 70
     1
 10
0.0
 20
0.0
 30
0.0
  3
*D19
  1

  0
LINE
  5
C510
330
C4E7
100
AcDbEntity
  8
0
 48
3.0
100
AcDbLine
 10
1871.999924118818
 20
568.9628005781742
 30
0.0
 11
2128.460241390353
 21
568.9628005781742
 31
0.0
  0
LINE
  5
C511
330
C4E7
100
AcDbEntity
  8
0
 48
3.0
100
AcDbLine
 10
1895.295983334847
 20
1035.960001776245
 30
0.0
 11
2128.460241390353
 21
1035.960001776245
 31
0.0
  0
LINE
  5
C512
330
C4E7
100
AcDbEntity
  8
0
 48
3.0
100
AcDbLine
 10
2115.960241390353
 20
593.9628005781742
 30
0.0
 11
2115.960241390353
 21
1010.960001776245
 31
0.0
  0
SOLID
  5
C513
330
C4E7
100
AcDbEntity
  8
0
 48
3.0
100
AcDbTrace
 10
2111.793574723686
 20
593.9628005781742
 30
0.0
 11
2120.126908057019
 21
593.9628005781742
 31
0.0
 12
2115.960241390353
 22
568.9628005781742
 32
0.0
 13
2115.960241390353
 23
568.9628005781742
 33
0.0
  0
SOLID
  5
C514
330
C4E7
100
AcDbEntity
  8
0
 48
3.0
100
AcDbTrace
 10
2111.793574723686
 20
1010.960001776245
 30
0.0
 11
2120.126908057019
 21
1010.960001776245
 31
0.0
 12
2115.960241390353
 22
1035.960001776245
 32
0.0
 13
2115.960241390353
 23
1035.960001776245
 33
0.0
  0
MTEXT
  5
C515
330
C4E7
100
AcDbEntity
  8
0
 48
3.0
100
AcDbMText
 10
2102.460241390353
 20
802.4614011772101
 30
0.0
 40
25.0
 41
0.0
 71
     5
 72
     1
  1
\A1;467
 11
0.0000000000000001
 21
1.0
 31
0.0
 73
     1
 44
1.0
1001
ACAD
1000
MTEXTBEGIN
1070
    73
1070
     1
1070
    44
1040
1.0
1070
    74
1070
     0
1000
MTEXTEND
  0
POINT
  5
C516
330
C4E7
100
AcDbEntity
  8
Defpoints
 62
     0
 48
3.0
100
AcDbPoint
 10
1859.999924118818
 20
568.9628005781742
 30
0.0
  0
POINT
  5
C517
330
C4E7
100
AcDbEntity
  8
Defpoints
 62
     0
 48
3.0
100
AcDbPoint
 10
1883.295983334848
 20
1035.960001776245
 30
0.0
  0
POINT
  5
C518
330
C4E7
100
AcDbEntity
  8
Defpoints
 62
     0
 48
3.0
100
AcDbPoint
 10
2115.960241390353
 20
1035.960001776245
 30
0.0
  0
ENDBLK
  5
C4F2
330
C4E7
100
AcDbEntity
  8
0
 48
3.0
100
AcDbBlockEnd
  0
BLOCK
  5
C521
330
C51B
100
AcDbEntity
  8
0
 48
3.0
100
AcDbBlockBegin
  2
*D20
 70
     1
 10
0.0
 20
0.0
 30
0.0
  3
*D20
  1

  0
LINE
  5
C524
330
C51B
100
AcDbEntity
  8
0
 48
3.0
100
AcDbLine
 10
2269.948320536933
 20
964.5666951140642
 30
0.0
 11
2344.538920129597
 21
983.6780125047306
 31
0.0
  0
MTEXT
  5
C525
330
C51B
100
AcDbEntity
  8
0
 48
3.0
100
AcDbMText
 10
2291.784071246482
 20
984.0974398758602
 30
0.0
 40
25.0
 41
0.0
 71
     5
 72
     1
  1
\A1;R15
 11
0.9687090856190199
 21
0.2481989271515137
 31
0.0
 73
     1
 44
1.0
1001
ACAD
1000
MTEXTBEGIN
1070
    73
1070
     1
1070
    44
1040
1.0
1070
    74
1070
     0
1000
MTEXTEND
  0
SOLID
  5
C526
330
C51B
100
AcDbEntity
  8
0
 48
3.0
100
AcDbTrace
 10
2343.504757933132
 20
987.7143003614765
 30
0.0
 11
2345.573082326062
 21
979.6417246479846
 31
0.0
 12
2368.756647270073
 22
989.8829856835185
 32
0.0
 13
2368.756647270073
 23
989.8829856835185
 33
0.0
  0
POINT
  5
C527
330
C51B
100
AcDbEntity
  8
Defpoints
 62
     0
 48
3.0
100
AcDbPoint
 10
2368.756647270073
 20
989.8829856835185
 30
0.0
  0
POINT
  5
C528
330
C51B
100
AcDbEntity
  8
Defpoints
 62
     0
 48
3.0
100
AcDbPoint
 10
2354.226010985789
 20
986.1600017762462
 30
0.0
  0
ENDBLK
  5
C522
330
C51B
100
AcDbEntity
  8
0
 48
3.0
100
AcDbBlockEnd
  0
BLOCK
  5
C535
330
C52B
100
AcDbEntity
  8
0
 48
3.0
100
AcDbBlockBegin
  2
*D21
 70
     1
 10
0.0
 20
0.0
 30
0.0
  3
*D21
  1

  0
LINE
  5
C538
330
C52B
100
AcDbEntity
  8
0
 48
3.0
100
AcDbLine
 10
2857.327486587053
 20
587.9206308487363
 30
0.0
 11
2857.327486587053
 21
433.175984953329
 31
0.0
  0
LINE
  5
C539
330
C52B
100
AcDbEntity
  8
0
 48
3.0
100
AcDbLine
 10
3620.327486587052
 20
587.9206308487355
 30
0.0
 11
3620.327486587052
 21
433.175984953329
 31
0.0
  0
LINE
  5
C53A
330
C52B
100
AcDbEntity
  8
0
 48
3.0
100
AcDbLine
 10
2882.327486587053
 20
445.675984953329
 30
0.0
 11
3595.327486587052
 21
445.675984953329
 31
0.0
  0
SOLID
  5
C53B
330
C52B
100
AcDbEntity
  8
0
 48
3.0
100
AcDbTrace
 10
2882.327486587053
 20
449.8426516199956
 30
0.0
 11
2882.327486587053
 21
441.5093182866623
 31
0.0
 12
2857.327486587053
 22
445.675984953329
 32
0.0
 13
2857.327486587053
 23
445.675984953329
 33
0.0
  0
SOLID
  5
C53C
330
C52B
100
AcDbEntity
  8
0
 48
3.0
100
AcDbTrace
 10
3595.327486587052
 20
449.8426516199956
 30
0.0
 11
3595.327486587052
 21
441.5093182866623
 31
0.0
 12
3620.327486587052
 22
445.675984953329
 32
0.0
 13
3620.327486587052
 23
445.675984953329
 33
0.0
  0
MTEXT
  5
C53D
330
C52B
100
AcDbEntity
  8
0
 48
3.0
100
AcDbMText
 10
3238.827486587052
 20
459.175984953329
 30
0.0
 40
25.0
 41
0.0
 71
     5
 72
     1
  1
\A1;763
 73
     1
 44
1.0
1001
ACAD
1000
MTEXTBEGIN
1070
    73
1070
     1
1070
    44
1040
1.0
1070
    74
1070
     0
1000
MTEXTEND
  0
POINT
  5
C53E
330
C52B
100
AcDbEntity
  8
Defpoints
 62
     0
 48
3.0
100
AcDbPoint
 10
2857.327486587053
 20
599.9206308487363
 30
0.0
  0
POINT
  5
C53F
330
C52B
100
AcDbEntity
  8
Defpoints
 62
     0
 48
3.0
100
AcDbPoint
 10
3620.327486587052
 20
599.9206308487355
 30
0.0
  0
POINT
  5
C540
330
C52B
100
AcDbEntity
  8
Defpoints
 62
     0
 48
3.0
100
AcDbPoint
 10
3620.327486587052
 20
445.675984953329
 30
0.0
  0
ENDBLK
  5
C536
330
C52B
100
AcDbEntity
  8
0
 48
3.0
100
AcDbBlockEnd
  0
BLOCK
  5
C54D
330
C543
100
AcDbEntity
  8
0
 48
3.0
100
AcDbBlockBegin
  2
*D22
 70
     1
 10
0.0
 20
0.0
 30
0.0
  3
*D22
  1

  0
LINE
  5
C550
330
C543
100
AcDbEntity
  8
0
 48
3.0
100
AcDbLine
 10
2964.465824622552
 20
530.6366112772901
 30
0.0
 11
2790.484359995834
 21
530.6366112772902
 31
0.0
  0
LINE
  5
C551
330
C543
100
AcDbEntity
  8
0
 48
3.0
100
AcDbLine
 10
2931.938051753285
 20
997.6366112772902
 30
0.0
 11
2790.484359995834
 21
997.6366112772904
 31
0.0
  0
LINE
  5
C552
330
C543
100
AcDbEntity
  8
0
 48
3.0
100
AcDbLine
 10
2802.984359995834
 20
555.6366112772902
 30
0.0
 11
2802.984359995834
 21
972.6366112772904
 31
0.0
  0
SOLID
  5
C553
330
C543
100
AcDbEntity
  8
0
 48
3.0
100
AcDbTrace
 10
2798.817693329167
 20
555.6366112772902
 30
0.0
 11
2807.1510266625
 21
555.6366112772902
 31
0.0
 12
2802.984359995834
 22
530.6366112772902
 32
0.0
 13
2802.984359995834
 23
530.6366112772902
 33
0.0
  0
SOLID
  5
C554
330
C543
100
AcDbEntity
  8
0
 48
3.0
100
AcDbTrace
 10
2798.817693329167
 20
972.6366112772904
 30
0.0
 11
2807.1510266625
 21
972.6366112772904
 31
0.0
 12
2802.984359995834
 22
997.6366112772904
 32
0.0
 13
2802.984359995834
 23
997.6366112772904
 33
0.0
  0
MTEXT
  5
C555
330
C543
100
AcDbEntity
  8
0
 48
3.0
100
AcDbMText
 10
2789.484359995834
 20
764.1366112772907
 30
0.0
 40
25.0
 41
0.0
 71
     5
 72
     1
  1
\A1;467
 11
0.0000000000000001
 21
1.0
 31
0.0
 73
     1
 44
1.0
1001
ACAD
1000
MTEXTBEGIN
1070
    73
1070
     1
1070
    44
1040
1.0
1070
    74
1070
     0
1000
MTEXTEND
  0
POINT
  5
C556
330
C543
100
AcDbEntity
  8
Defpoints
 62
     0
 48
3.0
100
AcDbPoint
 10
2976.465824622552
 20
530.6366112772901
 30
0.0
  0
POINT
  5
C557
330
C543
100
AcDbEntity
  8
Defpoints
 62
     0
 48
3.0
100
AcDbPoint
 10
2943.938051753285
 20
997.6366112772902
 30
0.0
  0
POINT
  5
C558
330
C543
100
AcDbEntity
  8
Defpoints
 62
     0
 48
3.0
100
AcDbPoint
 10
2802.984359995834
 20
997.6366112772904
 30
0.0
  0
ENDBLK
  5
C54E
330
C543
100
AcDbEntity
  8
0
 48
3.0
100
AcDbBlockEnd
  0
BLOCK
  5
C561
330
C55B
100
AcDbEntity
  8
0
 48
3.0
100
AcDbBlockBegin
  2
*D23
 70
     1
 10
0.0
 20
0.0
 30
0.0
  3
*D23
  1

  0
LINE
  5
C564
330
C55B
100
AcDbEntity
  8
0
 48
3.0
100
AcDbLine
 10
3706.4583005621
 20
1041.471621813063
 30
0.0
 11
3639.902123843479
 21
1002.751144793794
 31
0.0
  0
MTEXT
  5
C565
330
C55B
100
AcDbEntity
  8
0
 48
3.0
100
AcDbMText
 10
3677.196131283602
 20
1040.06611510138
 30
0.0
 40
25.0
 41
0.0
 71
     5
 72
     1
  1
\A1;R15
 11
0.8643659314106555
 21
0.5028633379125882
 31
0.0
 73
     1
 44
1.0
1001
ACAD
1000
MTEXTBEGIN
1070
    73
1070
     1
1070
    44
1040
1.0
1070
    74
1070
     0
1000
MTEXTEND
  0
SOLID
  5
C566
330
C55B
100
AcDbEntity
  8
0
 48
3.0
100
AcDbTrace
 10
3637.80685993551
 20
1006.352669508005
 30
0.0
 11
3641.997387751448
 21
999.1496200795829
 31
0.0
 12
3618.292975558213
 22
990.1795613459793
 32
0.0
 13
3618.292975558213
 23
990.1795613459793
 33
0.0
  0
POINT
  5
C567
330
C55B
100
AcDbEntity
  8
Defpoints
 62
     0
 48
3.0
100
AcDbPoint
 10
3618.292975558213
 20
990.1795613459793
 30
0.0
  0
POINT
  5
C568
330
C55B
100
AcDbEntity
  8
Defpoints
 62
     0
 48
3.0
100
AcDbPoint
 10
3605.327486587054
 20
982.6366112772905
 30
0.0
  0
ENDBLK
  5
C562
330
C55B
100
AcDbEntity
  8
0
 48
3.0
100
AcDbBlockEnd
  0
ENDSEC
  0
SECTION
  2
ENTITIES
  0
TEXT
  5
16A0
330
1F
100
AcDbEntity
  8
0
 62
     2
100
AcDbText
 10
114.7537472453277
 20
-23.5298447237908
 30
0.0
 40
3.125
  1

100
AcDbText
  0
TEXT
  5
4D67
330
1F
100
AcDbEntity
  8
0
100
AcDbText
 10
116.3882588759152
 20
64.40260909194835
 30
0.0
 40
2.5
  1

100
AcDbText
  0
TEXT
  5
8F05
330
1F
100
AcDbEntity
  8
0
100
AcDbText
 10
208.8311459582962
 20
7.02479293115843
 30
0.0
 40
2.5
  1

100
AcDbText
  0
TEXT
  5
8F06
330
1F
100
AcDbEntity
  8
0
100
AcDbText
 10
208.8311459582962
 20
-6.212349188336332
 30
0.0
 40
2.5
  1

100
AcDbText
  0
TEXT
  5
8F07
330
1F
100
AcDbEntity
  8
0
100
AcDbText
 10
249.4179960835197
 20
10.24922531343506
 30
0.0
 40
2.5
  1

100
AcDbText
  0
TEXT
  5
8FC8
330
1F
100
AcDbEntity
  8
0
100
AcDbText
 10
179.5261646622778
 20
71.20173478210157
 30
0.0
 40
2.5
  1

100
AcDbText
  0
TEXT
  5
8FC9
330
1F
100
AcDbEntity
  8
0
 62
     2
100
AcDbText
 10
206.4287653964532
 20
56.96485079239193
 30
0.0
 40
2.500000000000002
  1

100
AcDbText
  0
TEXT
  5
9100
330
1F
100
AcDbEntity
  8
0
 62
     2
100
AcDbText
 10
220.9253992839564
 20
25.43869931287148
 30
0.0
 40
4.0
  1

100
AcDbText
  0
MTEXT
  5
96AF
330
1F
100
AcDbEntity
  8
0
 48
3.0
100
AcDbMText
 10
38.97111640516545
 20
45.80946393534165
 30
0.0
 40
2.5
 41
0.0
 71
     9
 72
     1
  1
\A1;
 73
     1
 44
1.0
1001
ACAD
1000
MTEXTBEGIN
1070
    73
1070
     1
1070
    44
1040
1.0
1070
    74
1070
     0
1000
MTEXTEND
  0
HATCH
  5
B32E
330
1F
100
AcDbEntity
  8
0
 48
3.0
100
AcDbHatch
 10
0.0
 20
0.0
 30
0.0
210
0.0
220
0.0
230
1.0
  2
ANSI31
 70
     0
 71
     0
 91
        1
 92
        7
 72
     0
 73
     1
 93
        4
 10
924.2709073781925
 20
1722.709509021623
 10
922.8709073781926
 20
1722.709509021624
 10
922.8709073781924
 20
1673.909509021624
 10
924.2709073781924
 20
1673.909509021623
 97
        0
 75
     0
 76
     1
 52
0.0
 41
5.0
 77
     0
 78
     1
 53
45.0
 43
-3.08749927164149
 44
0.0000000000002274
 45
-11.22532015133644
 46
11.22532015133644
 79
     0
 47
0.2135976316497289
 98
        1
 10
923.6984206886308
 20
1705.83378559185
  0
HATCH
  5
B32F
330
1F
100
AcDbEntity
  8
0
 48
3.0
100
AcDbHatch
 10
0.0
 20
0.0
 30
0.0
210
0.0
220
0.0
230
1.0
  2
ANSI31
 70
     0
 71
     0
 91
        1
 92
        7
 72
     0
 73
     1
 93
        4
 10
359.271576066126
 20
1495.309509021623
 10
359.271576066126
 20
1493.909509021623
 10
416.2715760661259
 20
1493.909509021623
 10
416.271576066126
 20
1495.309509021623
 97
        0
 75
     0
 76
     1
 52
0.0
 41
5.0
 77
     0
 78
     1
 53
45.0
 43
-3.08749927164149
 44
0.0000000000002274
 45
-11.22532015133644
 46
11.22532015133644
 79
     0
 47
0.1083900849200681
 98
        1
 10
378.3406340164884
 20
1494.648252237728
  0
HATCH
  5
B330
330
1F
100
AcDbEntity
  8
0
 48
3.0
100
AcDbHatch
 10
0.0
 20
0.0
 30
0.0
210
0.0
220
0.0
230
1.0
  2
ANSI31
 70
     0
 71
     0
 91
        1
 92
        7
 72
     0
 73
     1
 93
        4
 10
360.6715760661261
 20
1723.909509021623
 10
359.271576066126
 20
1723.909509021623
 10
359.271576066126
 20
1495.309509021623
 10
360.6715760661264
 20
1495.309509021623
 97
        0
 75
     0
 76
     1
 52
0.0
 41
5.0
 77
     0
 78
     1
 53
45.0
 43
-3.08749927164149
 44
0.0000000000002274
 45
-11.22532015133644
 46
11.22532015133644
 79
     0
 47
0.5801686633321708
 98
        1
 10
360.2645972345372
 20
1650.35355110801
  0
LWPOLYLINE
  5
C519
330
1F
100
AcDbEntity
  8
0
 48
3.0
100
AcDbPolyline
 90
        6
 70
     1
 43
0.0
 10
2872.327486587053
 20
997.6366112772902
 10
3605.327486587053
 20
997.6366112772902
 42
-0.4142135623730951
 10
3620.327486587053
 20
982.6366112772902
 10
3620.327486587052
 20
530.6366112772901
 10
2857.327486587053
 20
530.6366112772901
 10
2857.327486587053
 20
982.6366112772902
 42
-0.4142135623730951
  0
ENDSEC
  0
SECTION
  2
OBJECTS
  0
DICTIONARY
  5
C
330
0
100
AcDbDictionary
281
     1
  3
ACAD_COLOR
350
8F91
  3
ACAD_GROUP
350
D
  3
ACAD_LAYOUT
350
1A
  3
ACAD_MATERIAL
350
8F90
  3
ACAD_MLEADERSTYLE
350
C3ED
  3
ACAD_MLINESTYLE
350
17
  3
ACAD_PLOTSETTINGS
350
19
  3
ACAD_PLOTSTYLENAME
350
E
  3
ACAD_SCALELIST
350
C3DB
  3
ACAD_TABLESTYLE
350
C3D9
  3
ACAD_VISUALSTYLE
350
C3C8
  3
ACDB_RECOMPOSE_DATA
350
C4AE
  3
AcDbVariableDictionary
350
66
  3
DWGPROPS
350
C599
  0
DICTIONARY
  5
C4BF
330
8
100
AcDbDictionary
280
     1
281
     1
  0
DICTIONARY
  5
C481
330
10
100
AcDbDictionary
280
     1
281
     1
  3
ADSK_XREC_LAYER_RECONCILED
360
C482
  0
DICTIONARY
  5
C483
330
147
100
AcDbDictionary
280
     1
281
     1
  3
ADSK_XREC_LAYER_RECONCILED
360
C484
  0
DICTIONARY
  5
C485
330
148
100
AcDbDictionary
280
     1
281
     1
  3
ADSK_XREC_LAYER_RECONCILED
360
C486
  0
DICTIONARY
  5
C487
330
149
100
AcDbDictionary
280
     1
281
     1
  3
ADSK_XREC_LAYER_RECONCILED
360
C488
  0
DICTIONARY
  5
C489
330
14A
100
AcDbDictionary
280
     1
281
     1
  3
ADSK_XREC_LAYER_RECONCILED
360
C48A
  0
DICTIONARY
  5
C48B
330
14C
100
AcDbDictionary
280
     1
281
     1
  3
ADSK_XREC_LAYER_RECONCILED
360
C48C
  0
DICTIONARY
  5
C48D
330
8F80
100
AcDbDictionary
280
     1
281
     1
  3
ADSK_XREC_LAYER_RECONCILED
360
C48E
  0
DICTIONARY
  5
8F91
102
{ACAD_REACTORS
330
C
102
}
330
C
100
AcDbDictionary
281
     1
  0
DICTIONARY
  5
D
102
{ACAD_REACTORS
330
C
102
}
330
C
100
AcDbDictionary
281
     1
  0
DICTIONARY
  5
1A
102
{ACAD_REACTORS
330
C
102
}
330
C
100
AcDbDictionary
281
     1
  3
Model
350
22
  3
布局1
350
1670
  0
DICTIONARY
  5
8F90
102
{ACAD_REACTORS
330
C
102
}
330
C
100
AcDbDictionary
281
     1
  3
ByBlock
350
C3B8
  3
ByLayer
350
C3B0
  3
Global
350
C3C0
  0
DICTIONARY
  5
C3ED
102
{ACAD_REACTORS
330
C
102
}
330
C
100
AcDbDictionary
281
     1
  3
Standard
350
C3EE
  0
DICTIONARY
  5
17
102
{ACAD_REACTORS
330
C
102
}
330
C
100
AcDbDictionary
281
     1
  3
Standard
350
18
  0
DICTIONARY
  5
19
102
{ACAD_REACTORS
330
C
102
}
330
C
100
AcDbDictionary
281
     1
  0
ACDBDICTIONARYWDFLT
  5
E
102
{ACAD_REACTORS
330
C
102
}
330
C
100
AcDbDictionary
281
     1
  3
Normal
350
F
100
AcDbDictionaryWithDefault
340
F
  0
DICTIONARY
  5
C3DB
102
{ACAD_REACTORS
330
C
102
}
330
C
100
AcDbDictionary
281
     1
  3
A0
350
C3DC
  3
A1
350
C3DD
  3
A2
350
C3DE
  3
A3
350
C3DF
  3
A4
350
C3E0
  3
A5
350
C3E1
  3
A6
350
C3E2
  3
A7
350
C3E3
  3
A8
350
C3E4
  3
A9
350
C3E5
  3
B0
350
C3E6
  3
B1
350
C3E7
  3
B2
350
C3E8
  3
B3
350
C3E9
  3
B4
350
C3EA
  3
B5
350
C3EB
  3
B6
350
C3EC
  0
DICTIONARY
  5
C3D9
102
{ACAD_REACTORS
330
C
102
}
330
C
100
AcDbDictionary
281
     1
  3
Standard
350
C3DA
  0
DICTIONARY
  5
C3C8
102
{ACAD_REACTORS
330
C
102
}
330
C
100
AcDbDictionary
281
     1
  3
2dWireframe
350
C3CE
  3
3D Hidden
350
C3D0
  3
3dWireframe
350
C3CF
  3
Basic
350
C3CD
  3
Brighten
350
C3D4
  3
ColorChange
350
C3D8
  3
Conceptual
350
C3D1
  3
Dim
350
C3D3
  3
Facepattern
350
C3D7
  3
Flat
350
C3C9
  3
FlatWithEdges
350
C3CA
  3
Gouraud
350
C3CB
  3
GouraudWithEdges
350
C3CC
  3
Linepattern
350
C3D6
  3
Realistic
350
C3D2
  3
Thicken
350
C3D5
  0
XRECORD
  5
C4AE
102
{ACAD_REACTORS
330
C
102
}
330
C
100
AcDbXrecord
280
     1
 90
        1
330
C3DA
  0
DICTIONARY
  5
66
102
{ACAD_REACTORS
330
C
102
}
330
C
100
AcDbDictionary
281
     1
  3
CANNOSCALE
350
C4B2
  3
CMLEADERSTYLE
350
C4B0
  3
CTABLESTYLE
350
C4AF
  3
DIMASSOC
350
67
  3
HIDETEXT
350
6B
  3
INDEXCTL
350
C4CA
  3
LAYEREVAL
350
C4B4
  3
LAYERNOTIFY
350
C4B5
  3
LIGHTINGUNITS
350
C4B3
  3
MSLTSCALE
350
C4B1
  3
PROJECTNAME
350
8FC2
  3
SORTENTS
350
C4C9
  0
XRECORD
  5
C599
102
{ACAD_REACTORS
330
C
102
}
330
C
100
AcDbXrecord
280
     1
  1
DWGPROPS COOKIE
  2

  3

  4

  6

  7

  8
Jonathan
  9

300
=
301
=
302
=
303
=
304
=
305
=
306
=
307
=
308
=
309
=
 40
0.25335125
 41
2453953.523412176
 42
2456564.60561625
  1

 90
        0
  0
XRECORD
  5
C482
102
{ACAD_REACTORS
330
C481
102
}
330
C481
100
AcDbXrecord
280
     1
290
     1
  0
XRECORD
  5
C484
102
{ACAD_REACTORS
330
C483
102
}
330
C483
100
AcDbXrecord
280
     1
290
     1
  0
XRECORD
  5
C486
102
{ACAD_REACTORS
330
C485
102
}
330
C485
100
AcDbXrecord
280
     1
290
     1
  0
XRECORD
  5
C488
102
{ACAD_REACTORS
330
C487
102
}
330
C487
100
AcDbXrecord
280
     1
290
     1
  0
XRECORD
  5
C48A
102
{ACAD_REACTORS
330
C489
102
}
330
C489
100
AcDbXrecord
280
     1
290
     1
  0
XRECORD
  5
C48C
102
{ACAD_REACTORS
330
C48B
102
}
330
C48B
100
AcDbXrecord
280
     1
290
     1
  0
XRECORD
  5
C48E
102
{ACAD_REACTORS
330
C48D
102
}
330
C48D
100
AcDbXrecord
280
     1
290
     1
  0
LAYOUT
  5
22
102
{ACAD_XDICTIONARY
360
C59A
102
}
102
{ACAD_REACTORS
330
1A
102
}
330
1A
100
AcDbPlotSettings
  1

  2
Canon PIXMA iP1000
  4
User256
  6

 40
4.180416584014892
 41
5.831417560577392
 42
4.180404663085937
 43
3.757080078125
 44
209.9733276367187
 45
296.9683227539062
 46
0.0
 47
0.0
 48
-48.04208501323109
 49
-100.240287546494
140
44.45791498676892
141
38.25971245350604
142
1.0
143
9.82111880477155
 70
 11952
 72
     1
 73
     1
 74
     1
  7
acad.ctb
 75
     0
147
0.101821393252483
148
48.08378180787866
149
185.2704188068596
100
AcDbLayout
  1
Model
 70
     1
 71
     0
 10
0.0
 20
0.0
 11
12.0
 21
9.0
 12
0.0
 22
0.0
 32
0.0
 14
0.0
 24
0.0
 34
0.0
 15
0.0
 25
0.0
 35
0.0
146
0.0
 13
0.0
 23
0.0
 33
0.0
 16
1.0
 26
0.0
 36
0.0
 17
0.0
 27
1.0
 37
0.0
 76
     0
330
1F
331
C572
  0
LAYOUT
  5
1670
102
{ACAD_XDICTIONARY
360
C59C
102
}
102
{ACAD_REACTORS
330
1A
102
}
330
1A
100
AcDbPlotSettings
  1

  2
AGFA-AccuSet 1000
  4

  6

 40
0.0
 41
0.0
 42
0.0
 43
0.0
 44
0.0
 45
0.0
 46
0.0
 47
0.0
 48
0.0
 49
0.0
140
0.0
141
0.0
142
1.0
143
1.0
 70
   688
 72
     0
 73
     0
 74
     5
  7
acad.ctb
 75
    16
147
1.0
148
0.0
149
0.0
100
AcDbLayout
  1
布局1
 70
     1
 71
     1
 10
0.0
 20
0.0
 11
12.0
 21
9.0
 12
0.0
 22
0.0
 32
0.0
 14
0.0
 24
0.0
 34
0.0
 15
0.0
 25
0.0
 35
0.0
146
0.0
 13
0.0
 23
0.0
 33
0.0
 16
1.0
 26
0.0
 36
0.0
 17
0.0
 27
1.0
 37
0.0
 76
     0
330
166F
  0
MATERIAL
  5
C3B8
102
{ACAD_XDICTIONARY
360
C3B9
102
}
102
{ACAD_REACTORS
330
8F90
102
}
330
8F90
100
AcDbMaterial
  1
ByBlock
 72
     0
 43
0.0208333333333333
 43
0.0
 43
0.0
 43
0.0
 43
0.0
 43
0.0208333333333333
 43
0.0
 43
0.0
 43
0.0
 43
0.0
 43
1.0
 43
0.0
 43
0.0
 43
0.0
 43
0.0
 43
1.0
 77
     0
 47
0.0208333333333333
 47
0.0
 47
0.0
 47
0.0
 47
0.0
 47
0.0208333333333333
 47
0.0
 47
0.0
 47
0.0
 47
0.0
 47
1.0
 47
0.0
 47
0.0
 47
0.0
 47
0.0
 47
1.0
171
     0
 49
0.0208333333333333
 49
0.0
 49
0.0
 49
0.0
 49
0.0
 49
0.0208333333333333
 49
0.0
 49
0.0
 49
0.0
 49
0.0
 49
1.0
 49
0.0
 49
0.0
 49
0.0
 49
0.0
 49
1.0
175
     0
142
0.0208333333333333
142
0.0
142
0.0
142
0.0
142
0.0
142
0.0208333333333333
142
0.0
142
0.0
142
0.0
142
0.0
142
1.0
142
0.0
142
0.0
142
0.0
142
0.0
142
1.0
179
     0
144
0.0208333333333333
144
0.0
144
0.0
144
0.0
144
0.0
144
0.0208333333333333
144
0.0
144
0.0
144
0.0
144
0.0
144
1.0
144
0.0
144
0.0
144
0.0
144
0.0
144
1.0
147
0.0208333333333333
147
0.0
147
0.0
147
0.0
147
0.0
147
0.0208333333333333
147
0.0
147
0.0
147
0.0
147
0.0
147
1.0
147
0.0
147
0.0
147
0.0
147
0.0
147
1.0
  0
MATERIAL
  5
C3B0
102
{ACAD_XDICTIONARY
360
C3B1
102
}
102
{ACAD_REACTORS
330
8F90
102
}
330
8F90
100
AcDbMaterial
  1
ByLayer
 72
     0
 43
0.0208333333333333
 43
0.0
 43
0.0
 43
0.0
 43
0.0
 43
0.0208333333333333
 43
0.0
 43
0.0
 43
0.0
 43
0.0
 43
1.0
 43
0.0
 43
0.0
 43
0.0
 43
0.0
 43
1.0
 77
     0
 47
0.0208333333333333
 47
0.0
 47
0.0
 47
0.0
 47
0.0
 47
0.0208333333333333
 47
0.0
 47
0.0
 47
0.0
 47
0.0
 47
1.0
 47
0.0
 47
0.0
 47
0.0
 47
0.0
 47
1.0
171
     0
 49
0.0208333333333333
 49
0.0
 49
0.0
 49
0.0
 49
0.0
 49
0.0208333333333333
 49
0.0
 49
0.0
 49
0.0
 49
0.0
 49
1.0
 49
0.0
 49
0.0
 49
0.0
 49
0.0
 49
1.0
175
     0
142
0.0208333333333333
142
0.0
142
0.0
142
0.0
142
0.0
142
0.0208333333333333
142
0.0
142
0.0
142
0.0
142
0.0
142
1.0
142
0.0
142
0.0
142
0.0
142
0.0
142
1.0
179
     0
144
0.0208333333333333
144
0.0
144
0.0
144
0.0
144
0.0
144
0.0208333333333333
144
0.0
144
0.0
144
0.0
144
0.0
144
1.0
144
0.0
144
0.0
144
0.0
144
0.0
144
1.0
147
0.0208333333333333
147
0.0
147
0.0
147
0.0
147
0.0
147
0.0208333333333333
147
0.0
147
0.0
147
0.0
147
0.0
147
1.0
147
0.0
147
0.0
147
0.0
147
0.0
147
1.0
  0
MATERIAL
  5
C3C0
102
{ACAD_XDICTIONARY
360
C3C1
102
}
102
{ACAD_REACTORS
330
8F90
102
}
330
8F90
100
AcDbMaterial
  1
Global
 72
     0
 43
0.0208333333333333
 43
0.0
 43
0.0
 43
0.0
 43
0.0
 43
0.0208333333333333
 43
0.0
 43
0.0
 43
0.0
 43
0.0
 43
1.0
 43
0.0
 43
0.0
 43
0.0
 43
0.0
 43
1.0
 77
     0
 47
0.0208333333333333
 47
0.0
 47
0.0
 47
0.0
 47
0.0
 47
0.0208333333333333
 47
0.0
 47
0.0
 47
0.0
 47
0.0
 47
1.0
 47
0.0
 47
0.0
 47
0.0
 47
0.0
 47
1.0
171
     0
 49
0.0208333333333333
 49
0.0
 49
0.0
 49
0.0
 49
0.0
 49
0.0208333333333333
 49
0.0
 49
0.0
 49
0.0
 49
0.0
 49
1.0
 49
0.0
 49
0.0
 49
0.0
 49
0.0
 49
1.0
175
     0
142
0.0208333333333333
142
0.0
142
0.0
142
0.0
142
0.0
142
0.0208333333333333
142
0.0
142
0.0
142
0.0
142
0.0
142
1.0
142
0.0
142
0.0
142
0.0
142
0.0
142
1.0
179
     0
144
0.0208333333333333
144
0.0
144
0.0
144
0.0
144
0.0
144
0.0208333333333333
144
0.0
144
0.0
144
0.0
144
0.0
144
1.0
144
0.0
144
0.0
144
0.0
144
0.0
144
1.0
147
0.0208333333333333
147
0.0
147
0.0
147
0.0
147
0.0
147
0.0208333333333333
147
0.0
147
0.0
147
0.0
147
0.0
147
1.0
147
0.0
147
0.0
147
0.0
147
0.0
147
1.0
  0
MLEADERSTYLE
  5
C3EE
102
{ACAD_REACTORS
330
C3ED
102
}
330
C3ED
100
AcDbMLeaderStyle
170
     2
171
     1
172
     0
 90
        2
 40
0.0
 41
0.0
173
     1
 91
-1056964608
340
14
 92
       -2
290
     1
 42
2.0
291
     1
 43
0.36
  3
Standard
 44
4.0
300

342
11
174
     1
178
     6
175
     1
176
     0
 93
-1056964608
 45
4.0
292
     0
297
     0
 46
4.0
 94
-1056964608
 47
1.0
 49
1.0
140
1.0
293
     1
141
0.0
294
     1
177
     0
142
1.0
295
     0
296
     0
143
0.125
1001
ACAD_MLEADERVER
1070
     2
  0
MLINESTYLE
  5
18
102
{ACAD_REACTORS
330
17
102
}
330
17
100
AcDbMlineStyle
  2
STANDARD
 70
     0
  3

 62
   256
 51
90.0
 52
90.0
 71
     2
 49
0.5
 62
   256
  6
BYLAYER
 49
-0.5
 62
   256
  6
BYLAYER
  0
ACDBPLACEHOLDER
  5
F
102
{ACAD_REACTORS
330
E
102
}
330
E
  0
SCALE
  5
C3DC
102
{ACAD_REACTORS
330
C3DB
102
}
330
C3DB
100
AcDbScale
 70
     0
300
1:1
140
1.0
141
1.0
290
     1
  0
SCALE
  5
C3DD
102
{ACAD_REACTORS
330
C3DB
102
}
330
C3DB
100
AcDbScale
 70
     0
300
1:2
140
1.0
141
2.0
290
     0
  0
SCALE
  5
C3DE
102
{ACAD_REACTORS
330
C3DB
102
}
330
C3DB
100
AcDbScale
 70
     0
300
1:4
140
1.0
141
4.0
290
     0
  0
SCALE
  5
C3DF
102
{ACAD_REACTORS
330
C3DB
102
}
330
C3DB
100
AcDbScale
 70
     0
300
1:5
140
1.0
141
5.0
290
     0
  0
SCALE
  5
C3E0
102
{ACAD_REACTORS
330
C3DB
102
}
330
C3DB
100
AcDbScale
 70
     0
300
1:8
140
1.0
141
8.0
290
     0
  0
SCALE
  5
C3E1
102
{ACAD_REACTORS
330
C3DB
102
}
330
C3DB
100
AcDbScale
 70
     0
300
1:10
140
1.0
141
10.0
290
     0
  0
SCALE
  5
C3E2
102
{ACAD_REACTORS
330
C3DB
102
}
330
C3DB
100
AcDbScale
 70
     0
300
1:16
140
1.0
141
16.0
290
     0
  0
SCALE
  5
C3E3
102
{ACAD_REACTORS
330
C3DB
102
}
330
C3DB
100
AcDbScale
 70
     0
300
1:20
140
1.0
141
20.0
290
     0
  0
SCALE
  5
C3E4
102
{ACAD_REACTORS
330
C3DB
102
}
330
C3DB
100
AcDbScale
 70
     0
300
1:30
140
1.0
141
30.0
290
     0
  0
SCALE
  5
C3E5
102
{ACAD_REACTORS
330
C3DB
102
}
330
C3DB
100
AcDbScale
 70
     0
300
1:40
140
1.0
141
40.0
290
     0
  0
SCALE
  5
C3E6
102
{ACAD_REACTORS
330
C3DB
102
}
330
C3DB
100
AcDbScale
 70
     0
300
1:50
140
1.0
141
50.0
290
     0
  0
SCALE
  5
C3E7
102
{ACAD_REACTORS
330
C3DB
102
}
330
C3DB
100
AcDbScale
 70
     0
300
1:100
140
1.0
141
100.0
290
     0
  0
SCALE
  5
C3E8
102
{ACAD_REACTORS
330
C3DB
102
}
330
C3DB
100
AcDbScale
 70
     0
300
2:1
140
2.0
141
1.0
290
     0
  0
SCALE
  5
C3E9
102
{ACAD_REACTORS
330
C3DB
102
}
330
C3DB
100
AcDbScale
 70
     0
300
4:1
140
4.0
141
1.0
290
     0
  0
SCALE
  5
C3EA
102
{ACAD_REACTORS
330
C3DB
102
}
330
C3DB
100
AcDbScale
 70
     0
300
8:1
140
8.0
141
1.0
290
     0
  0
SCALE
  5
C3EB
102
{ACAD_REACTORS
330
C3DB
102
}
330
C3DB
100
AcDbScale
 70
     0
300
10:1
140
10.0
141
1.0
290
     0
  0
SCALE
  5
C3EC
102
{ACAD_REACTORS
330
C3DB
102
}
330
C3DB
100
AcDbScale
 70
     0
300
100:1
140
100.0
141
1.0
290
     0
  0
TABLESTYLE
  5
C3DA
102
{ACAD_XDICTIONARY
360
C4AC
102
}
102
{ACAD_REACTORS
330
C3D9
102
}
330
C3D9
100
AcDbTableStyle
  3
Standard
 70
     0
 71
     0
 40
1.5
 41
1.5
280
     0
281
     0
  7
Standard
140
4.5
170
     2
 62
     0
 63
     7
283
     0
274
    -2
284
     1
 64
     0
275
    -2
285
     1
 65
     0
276
    -2
286
     1
 66
     0
277
    -2
287
     1
 67
     0
278
    -2
288
     1
 68
     0
279
    -2
289
     1
 69
     0
  7
Standard
140
6.0
170
     5
 62
     0
 63
     7
283
     0
274
    -2
284
     1
 64
     0
275
    -2
285
     1
 65
     0
276
    -2
286
     1
 66
     0
277
    -2
287
     1
 67
     0
278
    -2
288
     1
 68
     0
279
    -2
289
     1
 69
     0
  7
Standard
140
4.5
170
     5
 62
     0
 63
     7
283
     0
274
    -2
284
     1
 64
     0
275
    -2
285
     1
 65
     0
276
    -2
286
     1
 66
     0
277
    -2
287
     1
 67
     0
278
    -2
288
     1
 68
     0
279
    -2
289
     1
 69
     0
  0
VISUALSTYLE
  5
C3CE
102
{ACAD_REACTORS
330
C3C8
102
}
330
C3C8
100
AcDbVisualStyle
  2
2dWireframe
 70
     4
 71
     0
 72
     2
 73
     0
 90
        0
 40
-0.6
 41
-30.0
 62
     5
 63
     7
 74
     1
 91
        4
 64
     7
 65
   257
 75
     1
175
     1
 42
1.0
 92
        0
 66
   257
 43
1.0
 76
     1
 77
     6
 78
     2
 67
     7
 79
     5
170
     0
171
     0
290
     0
174
     0
 93
        1
 44
0.0
173
     0
291
     0
 45
0.0
1001
ACAD
1000
AcDbSavedByObjectVersion
1070
     0
  0
VISUALSTYLE
  5
C3D0
102
{ACAD_REACTORS
330
C3C8
102
}
330
C3C8
100
AcDbVisualStyle
  2
3D Hidden
 70
     6
 71
     1
 72
     2
 73
     2
 90
        0
 40
-0.6
 41
-30.0
 62
     5
 63
     7
 74
     2
 91
        2
 64
     7
 65
   257
 75
     2
175
     1
 42
40.0
 92
        0
 66
   257
 43
1.0
 76
     1
 77
     6
 78
     2
 67
     7
 79
     3
170
     0
171
     0
290
     0
174
     0
 93
        1
 44
0.0
173
     0
291
     0
 45
0.0
1001
ACAD
1000
AcDbSavedByObjectVersion
1070
     0
  0
VISUALSTYLE
  5
C3CF
102
{ACAD_REACTORS
330
C3C8
102
}
330
C3C8
100
AcDbVisualStyle
  2
3dWireframe
 70
     5
 71
     0
 72
     2
 73
     0
 90
        0
 40
-0.6
 41
-30.0
 62
     5
 63
     7
 74
     1
 91
        4
 64
     7
 65
   257
 75
     1
175
     1
 42
1.0
 92
        0
 66
   257
 43
1.0
 76
     1
 77
     6
 78
     2
 67
     7
 79
     5
170
     0
171
     0
290
     0
174
     0
 93
        1
 44
0.0
173
     0
291
     0
 45
0.0
1001
ACAD
1000
AcDbSavedByObjectVersion
1070
     0
  0
VISUALSTYLE
  5
C3CD
102
{ACAD_REACTORS
330
C3C8
102
}
330
C3C8
100
AcDbVisualStyle
  2
Basic
 70
     7
 71
     1
 72
     0
 73
     1
 90
        0
 40
-0.6
 41
-30.0
 62
     5
 63
     7
 74
     0
 91
        4
 64
     7
 65
   257
 75
     1
175
     1
 42
1.0
 92
        8
 66
     7
 43
1.0
 76
     1
 77
     6
 78
     2
 67
     7
 79
     5
170
     0
171
     0
290
     0
174
     0
 93
        1
 44
0.0
173
     0
291
     1
 45
0.0
1001
ACAD
1000
AcDbSavedByObjectVersion
1070
     0
  0
VISUALSTYLE
  5
C3D4
102
{ACAD_REACTORS
330
C3C8
102
}
330
C3C8
100
AcDbVisualStyle
  2
Brighten
 70
    12
 71
     2
 72
     2
 73
     0
 90
        0
 40
-0.6
 41
-30.0
 62
     5
 63
     7
 74
     1
 91
        4
 64
     7
 65
   257
 75
     1
175
     1
 42
1.0
 92
        8
 66
     7
 43
1.0
 76
     1
 77
     6
 78
     2
 67
     7
 79
     5
170
     0
171
     0
290
     0
174
     0
 93
        1
 44
50.0
173
     0
291
     1
 45
0.0
1001
ACAD
1000
AcDbSavedByObjectVersion
1070
     0
  0
VISUALSTYLE
  5
C3D8
102
{ACAD_REACTORS
330
C3C8
102
}
330
C3C8
100
AcDbVisualStyle
  2
ColorChange
 70
    16
 71
     2
 72
     2
 73
     3
 90
        0
 40
-0.6
 41
-30.0
 62
     5
 63
     8
 74
     1
 91
        4
 64
     7
 65
   257
 75
     1
175
     1
 42
1.0
 92
        8
 66
     8
 43
1.0
 76
     1
 77
     6
 78
     2
 67
     7
 79
     5
170
     0
171
     0
290
     0
174
     0
 93
        1
 44
0.0
173
     0
291
     1
 45
0.0
1001
ACAD
1000
AcDbSavedByObjectVersion
1070
     0
  0
VISUALSTYLE
  5
C3D1
102
{ACAD_REACTORS
330
C3C8
102
}
330
C3C8
100
AcDbVisualStyle
  2
Conceptual
 70
     9
 71
     3
 72
     2
 73
     0
 90
        0
 40
-0.6
 41
-30.0
 62
     5
 63
     7
 74
     2
 91
        2
 64
     7
 65
   257
 75
     1
175
     1
 42
40.0
 92
        8
 66
     7
 43
1.0
 76
     1
 77
     6
 78
     2
 67
     7
 79
     3
170
     0
171
     0
290
     0
174
     0
 93
        1
 44
0.0
173
     0
291
     0
 45
0.0
1001
ACAD
1000
AcDbSavedByObjectVersion
1070
     0
  0
VISUALSTYLE
  5
C3D3
102
{ACAD_REACTORS
330
C3C8
102
}
330
C3C8
100
AcDbVisualStyle
  2
Dim
 70
    11
 71
     2
 72
     2
 73
     0
 90
        0
 40
-0.6
 41
-30.0
 62
     5
 63
     7
 74
     1
 91
        4
 64
     7
 65
   257
 75
     1
175
     1
 42
1.0
 92
        8
 66
     7
 43
1.0
 76
     1
 77
     6
 78
     2
 67
     7
 79
     5
170
     0
171
     0
290
     0
174
     0
 93
        1
 44
-50.0
173
     0
291
     1
 45
0.0
1001
ACAD
1000
AcDbSavedByObjectVersion
1070
     0
  0
VISUALSTYLE
  5
C3D7
102
{ACAD_REACTORS
330
C3C8
102
}
330
C3C8
100
AcDbVisualStyle
  2
Facepattern
 70
    15
 71
     2
 72
     2
 73
     0
 90
        0
 40
-0.6
 41
-30.0
 62
     5
 63
     7
 74
     1
 91
        4
 64
     7
 65
   257
 75
     1
175
     1
 42
1.0
 92
        8
 66
     7
 43
1.0
 76
     1
 77
     6
 78
     2
 67
     7
 79
     5
170
     0
171
     0
290
     0
174
     0
 93
        1
 44
0.0
173
     0
291
     1
 45
0.0
1001
ACAD
1000
AcDbSavedByObjectVersion
1070
     0
  0
VISUALSTYLE
  5
C3C9
102
{ACAD_REACTORS
330
C3C8
102
}
330
C3C8
100
AcDbVisualStyle
  2
Flat
 70
     0
 71
     2
 72
     1
 73
     1
 90
        2
 40
-0.6
 41
30.0
 62
     5
 63
     7
 74
     0
 91
        4
 64
     7
 65
   257
 75
     1
175
     1
 42
1.0
 92
        8
 66
     7
 43
1.0
 76
     1
 77
     6
 78
     2
 67
     7
 79
     5
170
     0
171
     0
290
     0
174
     0
 93
       13
 44
0.0
173
     0
291
     1
 45
0.0
1001
ACAD
1000
AcDbSavedByObjectVersion
1070
     0
  0
VISUALSTYLE
  5
C3CA
102
{ACAD_REACTORS
330
C3C8
102
}
330
C3C8
100
AcDbVisualStyle
  2
FlatWithEdges
 70
     1
 71
     2
 72
     1
 73
     1
 90
        2
 40
-0.6
 41
30.0
 62
     5
 63
     7
 74
     1
 91
        4
 64
     7
 65
   257
 75
     1
175
     1
 42
1.0
 92
        0
 66
   257
 43
1.0
 76
     1
 77
     6
 78
     2
 67
     7
 79
     5
170
     0
171
     0
290
     0
174
     0
 93
       13
 44
0.0
173
     0
291
     1
 45
0.0
1001
ACAD
1000
AcDbSavedByObjectVersion
1070
     0
  0
VISUALSTYLE
  5
C3CB
102
{ACAD_REACTORS
330
C3C8
102
}
330
C3C8
100
AcDbVisualStyle
  2
Gouraud
 70
     2
 71
     2
 72
     2
 73
     1
 90
        2
 40
-0.6
 41
30.0
 62
     5
 63
     7
 74
     0
 91
        4
 64
     7
 65
   257
 75
     1
175
     1
 42
1.0
 92
        0
 66
     7
 43
1.0
 76
     1
 77
     6
 78
     2
 67
     7
 79
     5
170
     0
171
     0
290
     0
174
     0
 93
       13
 44
0.0
173
     0
291
     1
 45
0.0
1001
ACAD
1000
AcDbSavedByObjectVersion
1070
     0
  0
VISUALSTYLE
  5
C3CC
102
{ACAD_REACTORS
330
C3C8
102
}
330
C3C8
100
AcDbVisualStyle
  2
GouraudWithEdges
 70
     3
 71
     2
 72
     2
 73
     1
 90
        2
 40
-0.6
 41
30.0
 62
     5
 63
     7
 74
     1
 91
        4
 64
     7
 65
   257
 75
     1
175
     1
 42
1.0
 92
        0
 66
   257
 43
1.0
 76
     1
 77
     6
 78
     2
 67
     7
 79
     5
170
     0
171
     0
290
     0
174
     0
 93
       13
 44
0.0
173
     0
291
     1
 45
0.0
1001
ACAD
1000
AcDbSavedByObjectVersion
1070
     0
  0
VISUALSTYLE
  5
C3D6
102
{ACAD_REACTORS
330
C3C8
102
}
330
C3C8
100
AcDbVisualStyle
  2
Linepattern
 70
    14
 71
     2
 72
     2
 73
     0
 90
        0
 40
-0.6
 41
-30.0
 62
     5
 63
     7
 74
     1
 91
        4
 64
     7
 65
   257
 75
     7
175
     7
 42
1.0
 92
        8
 66
     7
 43
1.0
 76
     1
 77
     6
 78
     2
 67
     7
 79
     5
170
     0
171
     0
290
     0
174
     0
 93
        1
 44
0.0
173
     0
291
     1
 45
0.0
1001
ACAD
1000
AcDbSavedByObjectVersion
1070
     0
  0
VISUALSTYLE
  5
C3D2
102
{ACAD_REACTORS
330
C3C8
102
}
330
C3C8
100
AcDbVisualStyle
  2
Realistic
 70
     8
 71
     2
 72
     2
 73
     0
 90
        0
 40
-0.6
 41
-30.0
 62
     5
 63
     7
 74
     1
 91
        0
 64
     7
 65
   257
 75
     1
175
     1
 42
1.0
 92
        8
 66
     8
 43
1.0
 76
     1
 77
     6
 78
     2
 67
     7
 79
     5
170
     0
171
     0
290
     0
174
     0
 93
       13
 44
0.0
173
     0
291
     0
 45
0.0
1001
ACAD
1000
AcDbSavedByObjectVersion
1070
     0
  0
VISUALSTYLE
  5
C3D5
102
{ACAD_REACTORS
330
C3C8
102
}
330
C3C8
100
AcDbVisualStyle
  2
Thicken
 70
    13
 71
     2
 72
     2
 73
     0
 90
        0
 40
-0.6
 41
-30.0
 62
     5
 63
     7
 74
     1
 91
        4
 64
     7
 65
   257
 75
     1
175
     1
 42
1.0
 92
       12
 66
     7
 43
1.0
 76
     1
 77
     6
 78
     2
 67
     7
 79
     5
170
     0
171
     0
290
     0
174
     0
 93
        1
 44
0.0
173
     0
291
     1
 45
0.0
1001
ACAD
1000
AcDbSavedByObjectVersion
1070
     0
  0
DICTIONARYVAR
  5
C4B2
102
{ACAD_REACTORS
330
66
102
}
330
66
100
DictionaryVariables
280
     0
  1
1:1
  0
DICTIONARYVAR
  5
C4B0
102
{ACAD_REACTORS
330
66
102
}
330
66
100
DictionaryVariables
280
     0
  1
STANDARD
  0
DICTIONARYVAR
  5
C4AF
102
{ACAD_REACTORS
330
66
102
}
330
66
100
DictionaryVariables
280
     0
  1
STANDARD
  0
DICTIONARYVAR
  5
67
102
{ACAD_REACTORS
330
66
102
}
330
66
100
DictionaryVariables
280
     0
  1
2
  0
DICTIONARYVAR
  5
6B
102
{ACAD_REACTORS
330
66
102
}
330
66
100
DictionaryVariables
280
     0
  1
1
  0
DICTIONARYVAR
  5
C4CA
102
{ACAD_REACTORS
330
66
102
}
330
66
100
DictionaryVariables
280
     0
  1
0
  0
DICTIONARYVAR
  5
C4B4
102
{ACAD_REACTORS
330
66
102
}
330
66
100
DictionaryVariables
280
     0
  1
1
  0
DICTIONARYVAR
  5
C4B5
102
{ACAD_REACTORS
330
66
102
}
330
66
100
DictionaryVariables
280
     0
  1
15
  0
DICTIONARYVAR
  5
C4B3
102
{ACAD_REACTORS
330
66
102
}
330
66
100
DictionaryVariables
280
     0
  1
0
  0
DICTIONARYVAR
  5
C4B1
102
{ACAD_REACTORS
330
66
102
}
330
66
100
DictionaryVariables
280
     0
  1
0
  0
DICTIONARYVAR
  5
8FC2
102
{ACAD_REACTORS
330
66
102
}
330
66
100
DictionaryVariables
280
     0
  1

  0
DICTIONARYVAR
  5
C4C9
102
{ACAD_REACTORS
330
66
102
}
330
66
100
DictionaryVariables
280
     0
  1
127
  0
DICTIONARY
  5
C59A
330
22
100
AcDbDictionary
280
     1
281
     1
  3
ACAD_XREC_ROUNDTRIP
360
C59B
  0
DICTIONARY
  5
C59C
330
1670
100
AcDbDictionary
280
     1
281
     1
  3
ACAD_XREC_ROUNDTRIP
360
C59D
  0
DICTIONARY
  5
C3B9
330
C3B8
100
AcDbDictionary
280
     1
281
     1
  3
ACAD_XREC_ROUNDTRIP
360
C59F
  3
BUMPTILE
360
C3BB
  3
DIFFUSETILE
360
C3BA
  3
OPACITYTILE
360
C3BE
  3
REFLECTIONTILE
360
C3BD
  3
REFRACTIONTILE
360
C3BF
  3
SPECULARTILE
360
C3BC
  0
DICTIONARY
  5
C3B1
330
C3B0
100
AcDbDictionary
280
     1
281
     1
  3
ACAD_XREC_ROUNDTRIP
360
C59E
  3
BUMPTILE
360
C3B3
  3
DIFFUSETILE
360
C3B2
  3
OPACITYTILE
360
C3B6
  3
REFLECTIONTILE
360
C3B5
  3
REFRACTIONTILE
360
C3B7
  3
SPECULARTILE
360
C3B4
  0
DICTIONARY
  5
C3C1
330
C3C0
100
AcDbDictionary
280
     1
281
     1
  3
ACAD_XREC_ROUNDTRIP
360
C5A0
  3
BUMPTILE
360
C3C3
  3
DIFFUSETILE
360
C3C2
  3
OPACITYTILE
360
C3C6
  3
REFLECTIONTILE
360
C3C5
  3
REFRACTIONTILE
360
C3C7
  3
SPECULARTILE
360
C3C4
  0
DICTIONARY
  5
C4AC
330
C3DA
100
AcDbDictionary
280
     1
281
     1
  3
ACAD_ROUNDTRIP_2008_TABLESTYLE_CELLSTYLEMAP
360
C598
  3
ACAD_XREC_ROUNDTRIP
360
C5A1
  0
XRECORD
  5
C59B
102
{ACAD_REACTORS
330
C59A
102
}
330
C59A
100
AcDbXrecord
280
     1
102
SHADEPLOT
 70
     0
102
SHADEPLOTRESLEVEL
 70
     2
102
SHADEPLOTCUSTOMDPI
 70
   300
  0
XRECORD
  5
C59D
102
{ACAD_REACTORS
330
C59C
102
}
330
C59C
100
AcDbXrecord
280
     1
102
SHADEPLOT
 70
     0
102
SHADEPLOTRESLEVEL
 70
     2
102
SHADEPLOTCUSTOMDPI
 70
   300
  0
XRECORD
  5
C59F
102
{ACAD_REACTORS
330
C3B9
102
}
330
C3B9
100
AcDbXrecord
280
     1
102
MATERIAL
148
0.0
149
0.0
149
0.0
 93
        0
 94
      127
282
     0
 72
     0
 77
     0
171
     0
175
     0
179
     0
273
     0
  0
XRECORD
  5
C3BB
102
{ACAD_REACTORS
330
C3B9
102
}
330
C3B9
100
AcDbXrecord
280
     1
270
     1
271
     1
  0
XRECORD
  5
C3BA
102
{ACAD_REACTORS
330
C3B9
102
}
330
C3B9
100
AcDbXrecord
280
     1
270
     1
271
     1
  0
XRECORD
  5
C3BE
102
{ACAD_REACTORS
330
C3B9
102
}
330
C3B9
100
AcDbXrecord
280
     1
270
     1
271
     1
  0
XRECORD
  5
C3BD
102
{ACAD_REACTORS
330
C3B9
102
}
330
C3B9
100
AcDbXrecord
280
     1
270
     1
271
     1
  0
XRECORD
  5
C3BF
102
{ACAD_REACTORS
330
C3B9
102
}
330
C3B9
100
AcDbXrecord
280
     1
270
     1
271
     1
  0
XRECORD
  5
C3BC
102
{ACAD_REACTORS
330
C3B9
102
}
330
C3B9
100
AcDbXrecord
280
     1
270
     1
271
     1
  0
XRECORD
  5
C59E
102
{ACAD_REACTORS
330
C3B1
102
}
330
C3B1
100
AcDbXrecord
280
     1
102
MATERIAL
148
0.0
149
0.0
149
0.0
 93
        0
 94
      127
282
     0
 72
     0
 77
     0
171
     0
175
     0
179
     0
273
     0
  0
XRECORD
  5
C3B3
102
{ACAD_REACTORS
330
C3B1
102
}
330
C3B1
100
AcDbXrecord
280
     1
270
     1
271
     1
  0
XRECORD
  5
C3B2
102
{ACAD_REACTORS
330
C3B1
102
}
330
C3B1
100
AcDbXrecord
280
     1
270
     1
271
     1
  0
XRECORD
  5
C3B6
102
{ACAD_REACTORS
330
C3B1
102
}
330
C3B1
100
AcDbXrecord
280
     1
270
     1
271
     1
  0
XRECORD
  5
C3B5
102
{ACAD_REACTORS
330
C3B1
102
}
330
C3B1
100
AcDbXrecord
280
     1
270
     1
271
     1
  0
XRECORD
  5
C3B7
102
{ACAD_REACTORS
330
C3B1
102
}
330
C3B1
100
AcDbXrecord
280
     1
270
     1
271
     1
  0
XRECORD
  5
C3B4
102
{ACAD_REACTORS
330
C3B1
102
}
330
C3B1
100
AcDbXrecord
280
     1
270
     1
271
     1
  0
XRECORD
  5
C5A0
102
{ACAD_REACTORS
330
C3C1
102
}
330
C3C1
100
AcDbXrecord
280
     1
102
MATERIAL
148
0.0
149
0.0
149
0.0
 93
        0
 94
      127
282
     0
 72
     0
 77
     0
171
     0
175
     0
179
     0
273
     0
  0
XRECORD
  5
C3C3
102
{ACAD_REACTORS
330
C3C1
102
}
330
C3C1
100
AcDbXrecord
280
     1
270
     1
271
     1
  0
XRECORD
  5
C3C2
102
{ACAD_REACTORS
330
C3C1
102
}
330
C3C1
100
AcDbXrecord
280
     1
270
     1
271
     1
  0
XRECORD
  5
C3C6
102
{ACAD_REACTORS
330
C3C1
102
}
330
C3C1
100
AcDbXrecord
280
     1
270
     1
271
     1
  0
XRECORD
  5
C3C5
102
{ACAD_REACTORS
330
C3C1
102
}
330
C3C1
100
AcDbXrecord
280
     1
270
     1
271
     1
  0
XRECORD
  5
C3C7
102
{ACAD_REACTORS
330
C3C1
102
}
330
C3C1
100
AcDbXrecord
280
     1
270
     1
271
     1
  0
XRECORD
  5
C3C4
102
{ACAD_REACTORS
330
C3C1
102
}
330
C3C1
100
AcDbXrecord
280
     1
270
     1
271
     1
  0
CELLSTYLEMAP
  5
C598
102
{ACAD_REACTORS
330
C4AC
102
}
330
C4AC
100
AcDbCellStyleMap
 90
        3
300
CELLSTYLE
  1
TABLEFORMAT_BEGIN
 90
        5
170
     1
 91
        0
 92
    32768
 62
   257
 93
        1
300
CONTENTFORMAT
  1
CONTENTFORMAT_BEGIN
 90
        0
 91
        0
 92
      512
 93
        0
300

 40
0.0
140
1.0
 94
        5
 62
     0
340
11
144
6.0
309
CONTENTFORMAT_END
171
     1
301
MARGIN
  1
CELLMARGIN_BEGIN
 40
1.5
 40
1.5
 40
1.5
 40
1.5
 40
0.18
 40
0.18
309
CELLMARGIN_END
 94
        6
 95
        1
302
GRIDFORMAT
  1
GRIDFORMAT_BEGIN
 90
        0
 91
        1
 62
     0
 92
       -2
340
0
 93
        0
 40
1.125
309
GRIDFORMAT_END
 95
        2
302
GRIDFORMAT
  1
GRIDFORMAT_BEGIN
 90
        0
 91
        1
 62
     0
 92
       -2
340
0
 93
        0
 40
1.125
309
GRIDFORMAT_END
 95
        4
302
GRIDFORMAT
  1
GRIDFORMAT_BEGIN
 90
        0
 91
        1
 62
     0
 92
       -2
340
0
 93
        0
 40
1.125
309
GRIDFORMAT_END
 95
        8
302
GRIDFORMAT
  1
GRIDFORMAT_BEGIN
 90
        0
 91
        1
 62
     0
 92
       -2
340
0
 93
        0
 40
1.125
309
GRIDFORMAT_END
 95
       16
302
GRIDFORMAT
  1
GRIDFORMAT_BEGIN
 90
        0
 91
        1
 62
     0
 92
       -2
340
0
 93
        0
 40
1.125
309
GRIDFORMAT_END
 95
       32
302
GRIDFORMAT
  1
GRIDFORMAT_BEGIN
 90
        0
 91
        1
 62
     0
 92
       -2
340
0
 93
        0
 40
1.125
309
GRIDFORMAT_END
309
TABLEFORMAT_END
  1
CELLSTYLE_BEGIN
 90
        1
 91
        1
300
_TITLE
309
CELLSTYLE_END
300
CELLSTYLE
  1
TABLEFORMAT_BEGIN
 90
        5
170
     1
 91
        0
 92
        0
 62
   257
 93
        1
300
CONTENTFORMAT
  1
CONTENTFORMAT_BEGIN
 90
        0
 91
        0
 92
      512
 93
        0
300

 40
0.0
140
1.0
 94
        5
 62
     0
340
11
144
4.5
309
CONTENTFORMAT_END
171
     1
301
MARGIN
  1
CELLMARGIN_BEGIN
 40
1.5
 40
1.5
 40
1.5
 40
1.5
 40
0.18
 40
0.18
309
CELLMARGIN_END
 94
        6
 95
        1
302
GRIDFORMAT
  1
GRIDFORMAT_BEGIN
 90
        0
 91
        1
 62
     0
 92
       -2
340
0
 93
        0
 40
1.125
309
GRIDFORMAT_END
 95
        2
302
GRIDFORMAT
  1
GRIDFORMAT_BEGIN
 90
        0
 91
        1
 62
     0
 92
       -2
340
0
 93
        0
 40
1.125
309
GRIDFORMAT_END
 95
        4
302
GRIDFORMAT
  1
GRIDFORMAT_BEGIN
 90
        0
 91
        1
 62
     0
 92
       -2
340
0
 93
        0
 40
1.125
309
GRIDFORMAT_END
 95
        8
302
GRIDFORMAT
  1
GRIDFORMAT_BEGIN
 90
        0
 91
        1
 62
     0
 92
       -2
340
0
 93
        0
 40
1.125
309
GRIDFORMAT_END
 95
       16
302
GRIDFORMAT
  1
GRIDFORMAT_BEGIN
 90
        0
 91
        1
 62
     0
 92
       -2
340
0
 93
        0
 40
1.125
309
GRIDFORMAT_END
 95
       32
302
GRIDFORMAT
  1
GRIDFORMAT_BEGIN
 90
        0
 91
        1
 62
     0
 92
       -2
340
0
 93
        0
 40
1.125
309
GRIDFORMAT_END
309
TABLEFORMAT_END
  1
CELLSTYLE_BEGIN
 90
        2
 91
        1
300
_HEADER
309
CELLSTYLE_END
300
CELLSTYLE
  1
TABLEFORMAT_BEGIN
 90
        5
170
     1
 91
        0
 92
        0
 62
   257
 93
        1
300
CONTENTFORMAT
  1
CONTENTFORMAT_BEGIN
 90
        0
 91
        0
 92
      512
 93
        0
300

 40
0.0
140
1.0
 94
        2
 62
     0
340
11
144
4.5
309
CONTENTFORMAT_END
171
     1
301
MARGIN
  1
CELLMARGIN_BEGIN
 40
1.5
 40
1.5
 40
1.5
 40
1.5
 40
0.18
 40
0.18
309
CELLMARGIN_END
 94
        6
 95
        1
302
GRIDFORMAT
  1
GRIDFORMAT_BEGIN
 90
        0
 91
        1
 62
     0
 92
       -2
340
0
 93
        0
 40
1.125
309
GRIDFORMAT_END
 95
        2
302
GRIDFORMAT
  1
GRIDFORMAT_BEGIN
 90
        0
 91
        1
 62
     0
 92
       -2
340
0
 93
        0
 40
1.125
309
GRIDFORMAT_END
 95
        4
302
GRIDFORMAT
  1
GRIDFORMAT_BEGIN
 90
        0
 91
        1
 62
     0
 92
       -2
340
0
 93
        0
 40
1.125
309
GRIDFORMAT_END
 95
        8
302
GRIDFORMAT
  1
GRIDFORMAT_BEGIN
 90
        0
 91
        1
 62
     0
 92
       -2
340
0
 93
        0
 40
1.125
309
GRIDFORMAT_END
 95
       16
302
GRIDFORMAT
  1
GRIDFORMAT_BEGIN
 90
        0
 91
        1
 62
     0
 92
       -2
340
0
 93
        0
 40
1.125
309
GRIDFORMAT_END
 95
       32
302
GRIDFORMAT
  1
GRIDFORMAT_BEGIN
 90
        0
 91
        1
 62
     0
 92
       -2
340
0
 93
        0
 40
1.125
309
GRIDFORMAT_END
309
TABLEFORMAT_END
  1
CELLSTYLE_BEGIN
 90
        3
 91
        2
300
_DATA
309
CELLSTYLE_END
  0
XRECORD
  5
C5A1
102
{ACAD_REACTORS
330
C4AC
102
}
330
C4AC
100
AcDbXrecord
280
     1
102
ACAD_ROUNDTRIP_PRE2007_TABLESTYLE
 90
      512
 91
        0
  1

 92
      512
 93
        0
  2

 94
      512
 95
        0
  3

  0
ENDSEC
  0
EOF
