  0
SECTION
  2
HEADER
  9
$ACADVER
  1
AC1015
  9
$ACADMAINTVER
 70
    20
  9
$DWGCODEPAGE
  3
ANSI_936
  9
$INSBASE
 10
0.0
 20
0.0
 30
0.0
  9
$EXTMIN
 10
142.6073
 20
-106.3222
 30
0.0
  9
$EXTMAX
 10
322.607
 20
30.33863280763984
 30
0.0
  9
$LIMMIN
 10
0.0
 20
0.0
  9
$LIMMAX
 10
12.0
 20
9.0
  9
$ORTHOMODE
 70
     0
  9
$REGENMODE
 70
     1
  9
$FILLMODE
 70
     1
  9
$QTEXTMODE
 70
     0
  9
$MIRRTEXT
 70
     1
  9
$LTSCALE
 40
1.0
  9
$ATTMODE
 70
     1
  9
$TEXTSIZE
 40
0.2
  9
$TRACEWID
 40
0.05
  9
$TEXTSTYLE
  7
Standard
  9
$CLAYER
  8
0
  9
$CELTYPE
  6
ByLayer
  9
$CECOLOR
 62
   256
  9
$CELTSCALE
 40
1.0
  9
$DISPSILH
 70
     0
  9
$DIMSCALE
 40
1.0
  9
$DIMASZ
 40
0.18
  9
$DIMEXO
 40
0.0625
  9
$DIMDLI
 40
0.38
  9
$DIMRND
 40
0.0
  9
$DIMDLE
 40
0.0
  9
$DIMEXE
 40
0.18
  9
$DIMTP
 40
0.0
  9
$DIMTM
 40
0.0
  9
$DIMTXT
 40
0.18
  9
$DIMCEN
 40
0.09
  9
$DIMTSZ
 40
0.0
  9
$DIMTOL
 70
     0
  9
$DIMLIM
 70
     0
  9
$DIMTIH
 70
     1
  9
$DIMTOH
 70
     1
  9
$DIMSE1
 70
     0
  9
$DIMSE2
 70
     0
  9
$DIMTAD
 70
     0
  9
$DIMZIN
 70
     0
  9
$DIMBLK
  1

  9
$DIMASO
 70
     1
  9
$DIMSHO
 70
     1
  9
$DIMPOST
  1

  9
$DIMAPOST
  1

  9
$DIMALT
 70
     0
  9
$DIMALTD
 70
     2
  9
$DIMALTF
 40
25.4
  9
$DIMLFAC
 40
1.0
  9
$DIMTOFL
 70
     0
  9
$DIMTVP
 40
0.0
  9
$DIMTIX
 70
     0
  9
$DIMSOXD
 70
     0
  9
$DIMSAH
 70
     0
  9
$DIMBLK1
  1

  9
$DIMBLK2
  1

  9
$DIMSTYLE
  2
Standard
  9
$DIMCLRD
 70
     0
  9
$DIMCLRE
 70
     0
  9
$DIMCLRT
 70
     0
  9
$DIMTFAC
 40
1.0
  9
$DIMGAP
 40
0.09
  9
$DIMJUST
 70
     0
  9
$DIMSD1
 70
     0
  9
$DIMSD2
 70
     0
  9
$DIMTOLJ
 70
     1
  9
$DIMTZIN
 70
     0
  9
$DIMALTZ
 70
     0
  9
$DIMALTTZ
 70
     0
  9
$DIMUPT
 70
     0
  9
$DIMDEC
 70
     4
  9
$DIMTDEC
 70
     4
  9
$DIMALTU
 70
     2
  9
$DIMALTTD
 70
     2
  9
$DIMTXSTY
  7
Standard
  9
$DIMAUNIT
 70
     0
  9
$DIMADEC
 70
     0
  9
$DIMALTRND
 40
0.0
  9
$DIMAZIN
 70
     0
  9
$DIMDSEP
 70
    46
  9
$DIMATFIT
 70
     3
  9
$DIMFRAC
 70
     0
  9
$DIMLDRBLK
  1

  9
$DIMLUNIT
 70
     2
  9
$DIMLWD
 70
    -2
  9
$DIMLWE
 70
    -2
  9
$DIMTMOVE
 70
     0
  9
$LUNITS
 70
     2
  9
$LUPREC
 70
     4
  9
$SKETCHINC
 40
0.1
  9
$FILLETRAD
 40
0.5
  9
$AUNITS
 70
     0
  9
$AUPREC
 70
     0
  9
$MENU
  1
.
  9
$ELEVATION
 40
0.0
  9
$PELEVATION
 40
0.0
  9
$THICKNESS
 40
0.0
  9
$LIMCHECK
 70
     0
  9
$CHAMFERA
 40
0.5
  9
$CHAMFERB
 40
0.5
  9
$CHAMFERC
 40
1.0
  9
$CHAMFERD
 40
0.0
  9
$SKPOLY
 70
     0
  9
$TDCREATE
 40
2457364.621691262
  9
$TDUCREATE
 40
2457364.288357929
  9
$TDUPDATE
 40
2457364.622561123
  9
$TDUUPDATE
 40
2457364.289227789
  9
$TDINDWG
 40
0.0006855903
  9
$TDUSRTIMER
 40
0.0006843287
  9
$USRTIMER
 70
     1
  9
$ANGBASE
 50
0.0
  9
$ANGDIR
 70
     0
  9
$PDMODE
 70
     0
  9
$PDSIZE
 40
0.0
  9
$PLINEWID
 40
0.0
  9
$SPLFRAME
 70
     0
  9
$SPLINETYPE
 70
     6
  9
$SPLINESEGS
 70
     8
  9
$HANDSEED
  5
292
  9
$SURFTAB1
 70
     6
  9
$SURFTAB2
 70
     6
  9
$SURFTYPE
 70
     6
  9
$SURFU
 70
     6
  9
$SURFV
 70
     6
  9
$UCSBASE
  2

  9
$UCSNAME
  2

  9
$UCSORG
 10
0.0
 20
0.0
 30
0.0
  9
$UCSXDIR
 10
1.0
 20
0.0
 30
0.0
  9
$UCSYDIR
 10
0.0
 20
1.0
 30
0.0
  9
$UCSORTHOREF
  2

  9
$UCSORTHOVIEW
 70
     0
  9
$UCSORGTOP
 10
0.0
 20
0.0
 30
0.0
  9
$UCSORGBOTTOM
 10
0.0
 20
0.0
 30
0.0
  9
$UCSORGLEFT
 10
0.0
 20
0.0
 30
0.0
  9
$UCSORGRIGHT
 10
0.0
 20
0.0
 30
0.0
  9
$UCSORGFRONT
 10
0.0
 20
0.0
 30
0.0
  9
$UCSORGBACK
 10
0.0
 20
0.0
 30
0.0
  9
$PUCSBASE
  2

  9
$PUCSNAME
  2

  9
$PUCSORG
 10
0.0
 20
0.0
 30
0.0
  9
$PUCSXDIR
 10
1.0
 20
0.0
 30
0.0
  9
$PUCSYDIR
 10
0.0
 20
1.0
 30
0.0
  9
$PUCSORTHOREF
  2

  9
$PUCSORTHOVIEW
 70
     0
  9
$PUCSORGTOP
 10
0.0
 20
0.0
 30
0.0
  9
$PUCSORGBOTTOM
 10
0.0
 20
0.0
 30
0.0
  9
$PUCSORGLEFT
 10
0.0
 20
0.0
 30
0.0
  9
$PUCSORGRIGHT
 10
0.0
 20
0.0
 30
0.0
  9
$PUCSORGFRONT
 10
0.0
 20
0.0
 30
0.0
  9
$PUCSORGBACK
 10
0.0
 20
0.0
 30
0.0
  9
$USERI1
 70
     0
  9
$USERI2
 70
     0
  9
$USERI3
 70
     0
  9
$USERI4
 70
     0
  9
$USERI5
 70
     0
  9
$USERR1
 40
0.0
  9
$USERR2
 40
0.0
  9
$USERR3
 40
0.0
  9
$USERR4
 40
0.0
  9
$USERR5
 40
0.0
  9
$WORLDVIEW
 70
     1
  9
$SHADEDGE
 70
     3
  9
$SHADEDIF
 70
    70
  9
$TILEMODE
 70
     1
  9
$MAXACTVP
 70
    64
  9
$PINSBASE
 10
0.0
 20
0.0
 30
0.0
  9
$PLIMCHECK
 70
     0
  9
$PEXTMIN
 10
1.000000000000000E+20
 20
1.000000000000000E+20
 30
1.000000000000000E+20
  9
$PEXTMAX
 10
-1.000000000000000E+20
 20
-1.000000000000000E+20
 30
-1.000000000000000E+20
  9
$PLIMMIN
 10
0.0
 20
0.0
  9
$PLIMMAX
 10
12.0
 20
9.0
  9
$UNITMODE
 70
     0
  9
$VISRETAIN
 70
     1
  9
$PLINEGEN
 70
     0
  9
$PSLTSCALE
 70
     1
  9
$TREEDEPTH
 70
  3020
  9
$CMLSTYLE
  2
Standard
  9
$CMLJUST
 70
     0
  9
$CMLSCALE
 40
1.0
  9
$PROXYGRAPHICS
 70
     1
  9
$MEASUREMENT
 70
     0
  9
$CELWEIGHT
370
    -1
  9
$ENDCAPS
280
     0
  9
$JOINSTYLE
280
     0
  9
$LWDISPLAY
290
     0
  9
$INSUNITS
 70
     4
  9
$HYPERLINKBASE
  1

  9
$STYLESHEET
  1

  9
$XEDIT
290
     1
  9
$CEPSNTYPE
380
     0
  9
$PSTYLEMODE
290
     1
  9
$FINGERPRINTGUID
  2
{75CE243E-C94D-423C-AA8B-E41B94AA94D4}
  9
$VERSIONGUID
  2
{111F295D-322A-4E27-A805-DAB3B1E4E47E}
  9
$EXTNAMES
290
     1
  9
$PSVPSCALE
 40
0.0
  9
$OLESTARTUP
290
     0
  0
ENDSEC
  0
SECTION
  2
CLASSES
  0
CLASS
  1
ACDBDICTIONARYWDFLT
  2
AcDbDictionaryWithDefault
  3
ObjectDBX Classes
 90
        0
280
     0
281
     0
  0
CLASS
  1
VISUALSTYLE
  2
AcDbVisualStyle
  3
ObjectDBX Classes
 90
     4095
280
     0
281
     0
  0
CLASS
  1
SCALE
  2
AcDbScale
  3
ObjectDBX Classes
 90
     1153
280
     0
281
     0
  0
CLASS
  1
DICTIONARYVAR
  2
AcDbDictionaryVar
  3
ObjectDBX Classes
 90
        0
280
     0
281
     0
  0
CLASS
  1
ACDBPLACEHOLDER
  2
AcDbPlaceHolder
  3
ObjectDBX Classes
 90
        0
280
     0
281
     0
  0
CLASS
  1
LAYOUT
  2
AcDbLayout
  3
ObjectDBX Classes
 90
        0
280
     0
281
     0
  0
ENDSEC
  0
SECTION
  2
TABLES
  0
TABLE
  2
VPORT
  5
8
330
0
100
AcDbSymbolTable
 70
     2
  0
VPORT
  5
287
330
8
100
AcDbSymbolTableRecord
100
AcDbViewportTableRecord
  2
*Active
 70
     0
 10
0.0
 20
0.0
 11
1.0
 21
1.0
 12
230.1615277007478
 22
-22.6818040707615
 13
0.0
 23
0.0
 14
0.5
 24
0.5
 15
0.5
 25
0.5
 16
0.0
 26
0.0
 36
1.0
 17
0.0
 27
0.0
 37
0.0
 40
302.3390369975563
 41
2.3796992481203
 42
50.0
 43
0.0
 44
0.0
 50
0.0
 51
0.0
 71
     0
 72
   100
 73
     1
 74
     3
 75
     0
 76
     0
 77
     0
 78
     0
281
     0
 65
     1
110
0.0
120
0.0
130
0.0
111
1.0
121
0.0
131
0.0
112
0.0
122
1.0
132
0.0
 79
     0
146
0.0
  0
ENDTAB
  0
TABLE
  2
LTYPE
  5
5
330
0
100
AcDbSymbolTable
 70
     1
  0
LTYPE
  5
14
330
5
100
AcDbSymbolTableRecord
100
AcDbLinetypeTableRecord
  2
ByBlock
 70
     0
  3

 72
    65
 73
     0
 40
0.0
  0
LTYPE
  5
15
330
5
100
AcDbSymbolTableRecord
100
AcDbLinetypeTableRecord
  2
ByLayer
 70
     0
  3

 72
    65
 73
     0
 40
0.0
  0
LTYPE
  5
16
330
5
100
AcDbSymbolTableRecord
100
AcDbLinetypeTableRecord
  2
Continuous
 70
     0
  3
Solid line
 72
    65
 73
     0
 40
0.0
  0
ENDTAB
  0
TABLE
  2
LAYER
  5
2
330
0
100
AcDbSymbolTable
 70
     3
  0
LAYER
  5
10
330
2
100
AcDbSymbolTableRecord
100
AcDbLayerTableRecord
  2
0
 70
     0
 62
     7
  6
Continuous
370
    -3
390
F
  0
LAYER
  5
5E
330
2
100
AcDbSymbolTableRecord
100
AcDbLayerTableRecord
  2
layer 1
 70
     0
 62
     7
  6
Continuous
370
    -3
390
F
  0
LAYER
  5
63
330
2
100
AcDbSymbolTableRecord
100
AcDbLayerTableRecord
  2
DEFPOINTS
 70
     0
 62
     7
  6
Continuous
290
     0
370
    -3
390
F
  0
ENDTAB
  0
TABLE
  2
STYLE
  5
3
330
0
100
AcDbSymbolTable
 70
     7
  0
STYLE
  5
11
330
3
100
AcDbSymbolTableRecord
100
AcDbTextStyleTableRecord
  2
Standard
 70
     0
 40
0.0
 41
1.0
 50
0.0
 71
     0
 42
0.2
  3
txt
  4

  0
STYLE
  5
64
330
3
100
AcDbSymbolTableRecord
100
AcDbTextStyleTableRecord
  2
0
 70
     0
 40
1.0
 41
1.0
 50
0.0
 71
     0
 42
1.0
  3
Times New Roman
  4

1001
ACAD
1000
Times New Roman
1071
       18
  0
STYLE
  5
66
330
3
100
AcDbSymbolTableRecord
100
AcDbTextStyleTableRecord
  2
1
 70
     0
 40
1.0
 41
1.0
 50
0.0
 71
     0
 42
1.0
  3
Times New Roman
  4

1001
ACAD
1000
Times New Roman
1071
       18
  0
STYLE
  5
68
330
3
100
AcDbSymbolTableRecord
100
AcDbTextStyleTableRecord
  2
2
 70
     0
 40
1.0
 41
1.0
 50
0.0
 71
     0
 42
1.0
  3
Times New Roman
  4

1001
ACAD
1000
Times New Roman
1071
       18
  0
STYLE
  5
6C
330
3
100
AcDbSymbolTableRecord
100
AcDbTextStyleTableRecord
  2
3
 70
     0
 40
1.0
 41
1.0
 50
0.0
 71
     0
 42
1.0
  3
Times New Roman
  4

1001
ACAD
1000
Times New Roman
1071
       18
  0
STYLE
  5
1E2
330
3
100
AcDbSymbolTableRecord
100
AcDbTextStyleTableRecord
  2
4
 70
     0
 40
1.0
 41
1.0
 50
0.0
 71
     0
 42
1.0
  3
Arial
  4

1001
ACAD
1000
Arial
1071
       34
  0
STYLE
  5
1E5
330
3
100
AcDbSymbolTableRecord
100
AcDbTextStyleTableRecord
  2
5
 70
     0
 40
1.0
 41
1.0
 50
0.0
 71
     0
 42
1.0
  3
txt.shx
  4

1001
ACAD
1000
txt.shx
1071
    34306
  0
ENDTAB
  0
TABLE
  2
VIEW
  5
6
330
0
100
AcDbSymbolTable
 70
     0
  0
ENDTAB
  0
TABLE
  2
UCS
  5
7
330
0
100
AcDbSymbolTable
 70
     0
  0
ENDTAB
  0
TABLE
  2
APPID
  5
9
330
0
100
AcDbSymbolTable
 70
     2
  0
APPID
  5
12
330
9
100
AcDbSymbolTableRecord
100
AcDbRegAppTableRecord
  2
ACAD
 70
     0
  0
APPID
  5
5D
330
9
100
AcDbSymbolTableRecord
100
AcDbRegAppTableRecord
  2
ODA
 70
     0
  0
ENDTAB
  0
TABLE
  2
DIMSTYLE
  5
A
330
0
100
AcDbSymbolTable
 70
     1
100
AcDbDimStyleTable
 71
     0
  0
DIMSTYLE
105
27
330
A
100
AcDbSymbolTableRecord
100
AcDbDimStyleTableRecord
  2
Standard
 70
     0
340
11
  0
ENDTAB
  0
TABLE
  2
BLOCK_RECORD
  5
1
330
0
100
AcDbSymbolTable
 70
     1
  0
BLOCK_RECORD
  5
1F
330
1
100
AcDbSymbolTableRecord
100
AcDbBlockTableRecord
  2
*Model_Space
340
22
  0
BLOCK_RECORD
  5
1B
330
1
100
AcDbSymbolTableRecord
100
AcDbBlockTableRecord
  2
*Paper_Space
340
1E
  0
BLOCK_RECORD
  5
23
330
1
100
AcDbSymbolTableRecord
100
AcDbBlockTableRecord
  2
*Paper_Space0
340
26
  0
ENDTAB
  0
ENDSEC
  0
SECTION
  2
BLOCKS
  0
BLOCK
  5
20
330
1F
100
AcDbEntity
  8
0
100
AcDbBlockBegin
  2
*Model_Space
 70
     0
 10
0.0
 20
0.0
 30
0.0
  3
*Model_Space
  1

  0
ENDBLK
  5
21
330
1F
100
AcDbEntity
  8
0
100
AcDbBlockEnd
  0
BLOCK
  5
1C
330
1B
100
AcDbEntity
 67
     1
  8
0
100
AcDbBlockBegin
  2
*Paper_Space
 70
     0
 10
0.0
 20
0.0
 30
0.0
  3
*Paper_Space
  1

  0
ENDBLK
  5
1D
330
1B
100
AcDbEntity
 67
     1
  8
0
100
AcDbBlockEnd
  0
BLOCK
  5
24
330
23
100
AcDbEntity
  8
0
100
AcDbBlockBegin
  2
*Paper_Space0
 70
     0
 10
0.0
 20
0.0
 30
0.0
  3
*Paper_Space0
  1

  0
ENDBLK
  5
25
330
23
100
AcDbEntity
  8
0
100
AcDbBlockEnd
  0
ENDSEC
  0
SECTION
  2
ENTITIES
  0
SPLINE
  5
5F
330
1F
100
AcDbEntity
  8
layer 1
370
    20
100
AcDbSpline
210
0.0
220
0.0
230
1.0
 70
    11
 71
     3
 72
    16
 73
    12
 74
     0
 42
0.0000000001
 43
0.0000000001
 40
0.0
 40
0.0
 40
0.0
 40
0.0
 40
0.3333333333333333
 40
0.3333333333333333
 40
0.3333333333333333
 40
0.3333333333333333
 40
0.6666666666666666
 40
0.6666666666666666
 40
0.6666666666666666
 40
0.6666666666666666
 40
1.0
 40
1.0
 40
1.0
 40
1.0
 10
208.5684
 20
-1.264799999999999
 30
0.0
 10
208.5684
 20
-1.264799999999999
 30
0.0
 10
208.5689
 20
-3.199199999999999
 30
0.0
 10
208.5689
 20
-3.199199999999999
 30
0.0
 10
208.5689
 20
-3.199199999999999
 30
0.0
 10
208.9356
 20
-2.765499999999999
 30
0.0
 10
209.4025
 20
-2.565199999999999
 30
0.0
 10
209.9695
 20
-2.598399999999999
 30
0.0
 10
209.9695
 20
-2.598399999999999
 30
0.0
 10
209.9695
 20
-2.598399999999999
 30
0.0
 10
208.5684
 20
-1.264799999999999
 30
0.0
 10
208.5684
 20
-1.264799999999999
 30
0.0
  0
SPLINE
  5
60
330
1F
100
AcDbEntity
  8
layer 1
370
    20
100
AcDbSpline
210
0.0
220
0.0
230
1.0
 70
    24
 71
     3
 72
     8
 73
     4
 74
     0
 42
0.0000000001
 43
0.0000000001
 40
0.0
 40
0.0
 40
0.0
 40
0.0
 40
1.0
 40
1.0
 40
1.0
 40
1.0
 10
211.2496
 20
-7.5162
 30
0.0
 10
211.2496
 20
-7.5162
 30
0.0
 10
208.5684
 20
-1.264799999999999
 30
0.0
 10
208.5684
 20
-1.264799999999999
 30
0.0
  0
SPLINE
  5
61
330
1F
100
AcDbEntity
  8
layer 1
370
    20
100
AcDbSpline
210
0.0
220
0.0
230
1.0
 70
    11
 71
     3
 72
    16
 73
    12
 74
     0
 42
0.0000000001
 43
0.0000000001
 40
0.0
 40
0.0
 40
0.0
 40
0.0
 40
0.3333333333333333
 40
0.3333333333333333
 40
0.3333333333333333
 40
0.3333333333333333
 40
0.6666666666666666
 40
0.6666666666666666
 40
0.6666666666666666
 40
0.6666666666666666
 40
1.0
 40
1.0
 40
1.0
 40
1.0
 10
250.5812
 20
-1.012299999999999
 30
0.0
 10
250.5812
 20
-1.012299999999999
 30
0.0
 10
250.5817
 20
-2.946699999999999
 30
0.0
 10
250.5817
 20
-2.946699999999999
 30
0.0
 10
250.5817
 20
-2.946699999999999
 30
0.0
 10
250.9484
 20
-2.512999999999999
 30
0.0
 10
251.4153
 20
-2.312699999999999
 30
0.0
 10
251.9823
 20
-2.345899999999999
 30
0.0
 10
251.9823
 20
-2.345899999999999
 30
0.0
 10
251.9823
 20
-2.345899999999999
 30
0.0
 10
250.5812
 20
-1.012299999999999
 30
0.0
 10
250.5812
 20
-1.012299999999999
 30
0.0
  0
SPLINE
  5
62
330
1F
100
AcDbEntity
  8
layer 1
370
    20
100
AcDbSpline
210
0.0
220
0.0
230
1.0
 70
    24
 71
     3
 72
     8
 73
     4
 74
     0
 42
0.0000000001
 43
0.0000000001
 40
0.0
 40
0.0
 40
0.0
 40
0.0
 40
1.0
 40
1.0
 40
1.0
 40
1.0
 10
253.2379
 20
-7.2064
 30
0.0
 10
253.2379
 20
-7.2064
 30
0.0
 10
250.5812
 20
-1.012299999999999
 30
0.0
 10
250.5812
 20
-1.012299999999999
 30
0.0
  0
TEXT
  5
65
330
1F
100
AcDbEntity
  8
DEFPOINTS
100
AcDbText
 10
161.938
 20
-8.712100000000001
 30
0.0
 40
1.272456
  1
Please use inner line for negative reveal 1/8"
 50
-0.1237645630145031
 51
0.1217551954436076
  7
0
100
AcDbText
  0
TEXT
  5
67
330
1F
100
AcDbEntity
  8
DEFPOINTS
100
AcDbText
 10
203.4319
 20
-8.841700000000003
 30
0.0
 40
1.381391999999999
  1
Please use middle line for flushed reveal
 50
0.0531739771006983
 51
-0.0000015352345087
  7
1
100
AcDbText
  0
TEXT
  5
69
330
1F
100
AcDbEntity
  8
DEFPOINTS
100
AcDbText
 10
246.4189
 20
-8.712699999999999
 30
0.0
 40
1.270512
  1
Please use outer line for positive reveal 1/8"
 50
0.0723556255927841
 51
-0.7214193946669837
  7
2
100
AcDbText
  0
SPLINE
  5
6A
330
1F
100
AcDbEntity
  8
DEFPOINTS
370
    20
100
AcDbSpline
210
0.0
220
0.0
230
1.0
 70
    11
 71
     3
 72
    16
 73
    12
 74
     0
 42
0.0000000001
 43
0.0000000001
 40
0.0
 40
0.0
 40
0.0
 40
0.0
 40
0.3333333333333333
 40
0.3333333333333333
 40
0.3333333333333333
 40
0.3333333333333333
 40
0.6666666666666666
 40
0.6666666666666666
 40
0.6666666666666666
 40
0.6666666666666666
 40
1.0
 40
1.0
 40
1.0
 40
1.0
 10
166.6674
 20
-1.908099999999999
 30
0.0
 10
166.6674
 20
-1.908099999999999
 30
0.0
 10
166.6679
 20
-3.842499999999999
 30
0.0
 10
166.6679
 20
-3.842499999999999
 30
0.0
 10
166.6679
 20
-3.842499999999999
 30
0.0
 10
167.0347
 20
-3.408799999999999
 30
0.0
 10
167.5015
 20
-3.208499999999999
 30
0.0
 10
168.0685
 20
-3.241699999999999
 30
0.0
 10
168.0685
 20
-3.241699999999999
 30
0.0
 10
168.0685
 20
-3.241699999999999
 30
0.0
 10
166.6674
 20
-1.908099999999999
 30
0.0
 10
166.6674
 20
-1.908099999999999
 30
0.0
  0
SPLINE
  5
6B
330
1F
100
AcDbEntity
  8
DEFPOINTS
370
    20
100
AcDbSpline
210
0.0
220
0.0
230
1.0
 70
    24
 71
     3
 72
     8
 73
     4
 74
     0
 42
0.0000000001
 43
0.0000000001
 40
0.0
 40
0.0
 40
0.0
 40
0.0
 40
1.0
 40
1.0
 40
1.0
 40
1.0
 10
169.1078
 20
-7.597699999999999
 30
0.0
 10
169.1078
 20
-7.597699999999999
 30
0.0
 10
166.6674
 20
-1.908099999999999
 30
0.0
 10
166.6674
 20
-1.908099999999999
 30
0.0
  0
TEXT
  5
6D
330
1F
100
AcDbEntity
  8
DEFPOINTS
100
AcDbText
 10
168.9738
 20
-70.4842
 30
0.0
 40
3.047975999999999
  1
Please check actual template against physical sink unit for 
 51
-0.0000015352345087
  7
3
100
AcDbText
  0
TEXT
  5
6E
330
1F
100
AcDbEntity
  8
DEFPOINTS
100
AcDbText
 10
168.9738
 20
-75.1726
 30
0.0
 40
3.047975999999999
  1
most accurate cut!
 51
-0.0000015352345087
  7
0
100
AcDbText
  0
SPLINE
  5
6F
330
1F
100
AcDbEntity
  8
DEFPOINTS
370
    25
100
AcDbSpline
210
0.0
220
0.0
230
1.0
 70
    24
 71
     3
 72
     8
 73
     4
 74
     0
 42
0.0000000001
 43
0.0000000001
 40
0.0
 40
0.0
 40
0.0
 40
0.0
 40
1.0
 40
1.0
 40
1.0
 40
1.0
 10
290.5919
 20
-4.007699999999999
 30
0.0
 10
290.5919
 20
-4.007699999999999
 30
0.0
 10
290.5919
 20
-5.177999999999999
 30
0.0
 10
290.5919
 20
-5.177999999999999
 30
0.0
  0
SPLINE
  5
70
330
1F
100
AcDbEntity
  8
DEFPOINTS
370
    25
100
AcDbSpline
210
0.0
220
0.0
230
1.0
 70
    24
 71
     3
 72
     8
 73
     4
 74
     0
 42
0.0000000001
 43
0.0000000001
 40
0.0
 40
0.0
 40
0.0
 40
0.0
 40
1.0
 40
1.0
 40
1.0
 40
1.0
 10
290.5919
 20
-5.8281
 30
0.0
 10
290.5919
 20
-5.8281
 30
0.0
 10
290.5919
 20
-7.128599999999999
 30
0.0
 10
290.5919
 20
-7.128599999999999
 30
0.0
  0
SPLINE
  5
71
330
1F
100
AcDbEntity
  8
DEFPOINTS
370
    25
100
AcDbSpline
210
0.0
220
0.0
230
1.0
 70
    24
 71
     3
 72
     8
 73
     4
 74
     0
 42
0.0000000001
 43
0.0000000001
 40
0.0
 40
0.0
 40
0.0
 40
0.0
 40
1.0
 40
1.0
 40
1.0
 40
1.0
 10
290.5919
 20
-7.778699999999999
 30
0.0
 10
290.5919
 20
-7.778699999999999
 30
0.0
 10
290.5919
 20
-9.0531
 30
0.0
 10
290.5919
 20
-9.0531
 30
0.0
  0
SPLINE
  5
72
330
1F
100
AcDbEntity
  8
DEFPOINTS
370
    25
100
AcDbSpline
210
0.0
220
0.0
230
1.0
 70
    24
 71
     3
 72
     8
 73
     4
 74
     0
 42
0.0000000001
 43
0.0000000001
 40
0.0
 40
0.0
 40
0.0
 40
0.0
 40
1.0
 40
1.0
 40
1.0
 40
1.0
 10
290.5919
 20
-9.7034
 30
0.0
 10
290.5919
 20
-9.7034
 30
0.0
 10
290.5919
 20
-11.0037
 30
0.0
 10
290.5919
 20
-11.0037
 30
0.0
  0
SPLINE
  5
73
330
1F
100
AcDbEntity
  8
DEFPOINTS
370
    25
100
AcDbSpline
210
0.0
220
0.0
230
1.0
 70
    24
 71
     3
 72
     8
 73
     4
 74
     0
 42
0.0000000001
 43
0.0000000001
 40
0.0
 40
0.0
 40
0.0
 40
0.0
 40
1.0
 40
1.0
 40
1.0
 40
1.0
 10
290.5919
 20
-11.654
 30
0.0
 10
290.5919
 20
-11.654
 30
0.0
 10
290.5919
 20
-12.9543
 30
0.0
 10
290.5919
 20
-12.9543
 30
0.0
  0
SPLINE
  5
74
330
1F
100
AcDbEntity
  8
DEFPOINTS
370
    25
100
AcDbSpline
210
0.0
220
0.0
230
1.0
 70
    24
 71
     3
 72
     8
 73
     4
 74
     0
 42
0.0000000001
 43
0.0000000001
 40
0.0
 40
0.0
 40
0.0
 40
0.0
 40
1.0
 40
1.0
 40
1.0
 40
1.0
 10
290.5919
 20
-13.6045
 30
0.0
 10
290.5919
 20
-13.6045
 30
0.0
 10
290.5919
 20
-14.8788
 30
0.0
 10
290.5919
 20
-14.8788
 30
0.0
  0
SPLINE
  5
75
330
1F
100
AcDbEntity
  8
DEFPOINTS
370
    25
100
AcDbSpline
210
0.0
220
0.0
230
1.0
 70
    24
 71
     3
 72
     8
 73
     4
 74
     0
 42
0.0000000001
 43
0.0000000001
 40
0.0
 40
0.0
 40
0.0
 40
0.0
 40
1.0
 40
1.0
 40
1.0
 40
1.0
 10
290.5919
 20
-15.5291
 30
0.0
 10
290.5919
 20
-15.5291
 30
0.0
 10
290.5919
 20
-16.8294
 30
0.0
 10
290.5919
 20
-16.8294
 30
0.0
  0
SPLINE
  5
76
330
1F
100
AcDbEntity
  8
DEFPOINTS
370
    25
100
AcDbSpline
210
0.0
220
0.0
230
1.0
 70
    24
 71
     3
 72
     8
 73
     4
 74
     0
 42
0.0000000001
 43
0.0000000001
 40
0.0
 40
0.0
 40
0.0
 40
0.0
 40
1.0
 40
1.0
 40
1.0
 40
1.0
 10
290.5919
 20
-17.4797
 30
0.0
 10
290.5919
 20
-17.4797
 30
0.0
 10
290.5919
 20
-18.78
 30
0.0
 10
290.5919
 20
-18.78
 30
0.0
  0
SPLINE
  5
77
330
1F
100
AcDbEntity
  8
DEFPOINTS
370
    25
100
AcDbSpline
210
0.0
220
0.0
230
1.0
 70
    24
 71
     3
 72
     8
 73
     4
 74
     0
 42
0.0000000001
 43
0.0000000001
 40
0.0
 40
0.0
 40
0.0
 40
0.0
 40
1.0
 40
1.0
 40
1.0
 40
1.0
 10
290.5919
 20
-19.4042
 30
0.0
 10
290.5919
 20
-19.4042
 30
0.0
 10
290.5919
 20
-20.7047
 30
0.0
 10
290.5919
 20
-20.7047
 30
0.0
  0
SPLINE
  5
78
330
1F
100
AcDbEntity
  8
DEFPOINTS
370
    25
100
AcDbSpline
210
0.0
220
0.0
230
1.0
 70
    24
 71
     3
 72
     8
 73
     4
 74
     0
 42
0.0000000001
 43
0.0000000001
 40
0.0
 40
0.0
 40
0.0
 40
0.0
 40
1.0
 40
1.0
 40
1.0
 40
1.0
 10
290.5919
 20
-21.3548
 30
0.0
 10
290.5919
 20
-21.3548
 30
0.0
 10
290.5919
 20
-22.6553
 30
0.0
 10
290.5919
 20
-22.6553
 30
0.0
  0
SPLINE
  5
79
330
1F
100
AcDbEntity
  8
DEFPOINTS
370
    25
100
AcDbSpline
210
0.0
220
0.0
230
1.0
 70
    24
 71
     3
 72
     8
 73
     4
 74
     0
 42
0.0000000001
 43
0.0000000001
 40
0.0
 40
0.0
 40
0.0
 40
0.0
 40
1.0
 40
1.0
 40
1.0
 40
1.0
 10
290.5919
 20
-23.3054
 30
0.0
 10
290.5919
 20
-23.3054
 30
0.0
 10
290.5919
 20
-24.5798
 30
0.0
 10
290.5919
 20
-24.5798
 30
0.0
  0
SPLINE
  5
7A
330
1F
100
AcDbEntity
  8
DEFPOINTS
370
    25
100
AcDbSpline
210
0.0
220
0.0
230
1.0
 70
    24
 71
     3
 72
     8
 73
     4
 74
     0
 42
0.0000000001
 43
0.0000000001
 40
0.0
 40
0.0
 40
0.0
 40
0.0
 40
1.0
 40
1.0
 40
1.0
 40
1.0
 10
290.5919
 20
-25.23
 30
0.0
 10
290.5919
 20
-25.23
 30
0.0
 10
290.5919
 20
-26.5304
 30
0.0
 10
290.5919
 20
-26.5304
 30
0.0
  0
SPLINE
  5
7B
330
1F
100
AcDbEntity
  8
DEFPOINTS
370
    25
100
AcDbSpline
210
0.0
220
0.0
230
1.0
 70
    24
 71
     3
 72
     8
 73
     4
 74
     0
 42
0.0000000001
 43
0.0000000001
 40
0.0
 40
0.0
 40
0.0
 40
0.0
 40
1.0
 40
1.0
 40
1.0
 40
1.0
 10
290.5919
 20
-27.1806
 30
0.0
 10
290.5919
 20
-27.1806
 30
0.0
 10
290.5919
 20
-28.481
 30
0.0
 10
290.5919
 20
-28.481
 30
0.0
  0
SPLINE
  5
7C
330
1F
100
AcDbEntity
  8
DEFPOINTS
370
    25
100
AcDbSpline
210
0.0
220
0.0
230
1.0
 70
    24
 71
     3
 72
     8
 73
     4
 74
     0
 42
0.0000000001
 43
0.0000000001
 40
0.0
 40
0.0
 40
0.0
 40
0.0
 40
1.0
 40
1.0
 40
1.0
 40
1.0
 10
290.5919
 20
-29.1051
 30
0.0
 10
290.5919
 20
-29.1051
 30
0.0
 10
290.5919
 20
-30.4055
 30
0.0
 10
290.5919
 20
-30.4055
 30
0.0
  0
SPLINE
  5
7D
330
1F
100
AcDbEntity
  8
DEFPOINTS
370
    25
100
AcDbSpline
210
0.0
220
0.0
230
1.0
 70
    24
 71
     3
 72
     8
 73
     4
 74
     0
 42
0.0000000001
 43
0.0000000001
 40
0.0
 40
0.0
 40
0.0
 40
0.0
 40
1.0
 40
1.0
 40
1.0
 40
1.0
 10
290.5919
 20
-31.0557
 30
0.0
 10
290.5919
 20
-31.0557
 30
0.0
 10
290.5919
 20
-32.3561
 30
0.0
 10
290.5919
 20
-32.3561
 30
0.0
  0
SPLINE
  5
7E
330
1F
100
AcDbEntity
  8
DEFPOINTS
370
    25
100
AcDbSpline
210
0.0
220
0.0
230
1.0
 70
    24
 71
     3
 72
     8
 73
     4
 74
     0
 42
0.0000000001
 43
0.0000000001
 40
0.0
 40
0.0
 40
0.0
 40
0.0
 40
1.0
 40
1.0
 40
1.0
 40
1.0
 10
290.5919
 20
-33.0063
 30
0.0
 10
290.5919
 20
-33.0063
 30
0.0
 10
290.5919
 20
-34.2807
 30
0.0
 10
290.5919
 20
-34.2807
 30
0.0
  0
SPLINE
  5
7F
330
1F
100
AcDbEntity
  8
DEFPOINTS
370
    25
100
AcDbSpline
210
0.0
220
0.0
230
1.0
 70
    24
 71
     3
 72
     8
 73
     4
 74
     0
 42
0.0000000001
 43
0.0000000001
 40
0.0
 40
0.0
 40
0.0
 40
0.0
 40
1.0
 40
1.0
 40
1.0
 40
1.0
 10
290.5919
 20
-34.9308
 30
0.0
 10
290.5919
 20
-34.9308
 30
0.0
 10
290.5919
 20
-36.2313
 30
0.0
 10
290.5919
 20
-36.2313
 30
0.0
  0
SPLINE
  5
80
330
1F
100
AcDbEntity
  8
DEFPOINTS
370
    25
100
AcDbSpline
210
0.0
220
0.0
230
1.0
 70
    24
 71
     3
 72
     8
 73
     4
 74
     0
 42
0.0000000001
 43
0.0000000001
 40
0.0
 40
0.0
 40
0.0
 40
0.0
 40
1.0
 40
1.0
 40
1.0
 40
1.0
 10
290.5919
 20
-36.8814
 30
0.0
 10
290.5919
 20
-36.8814
 30
0.0
 10
290.5919
 20
-38.1819
 30
0.0
 10
290.5919
 20
-38.1819
 30
0.0
  0
SPLINE
  5
81
330
1F
100
AcDbEntity
  8
DEFPOINTS
370
    25
100
AcDbSpline
210
0.0
220
0.0
230
1.0
 70
    24
 71
     3
 72
     8
 73
     4
 74
     0
 42
0.0000000001
 43
0.0000000001
 40
0.0
 40
0.0
 40
0.0
 40
0.0
 40
1.0
 40
1.0
 40
1.0
 40
1.0
 10
290.5919
 20
-38.832
 30
0.0
 10
290.5919
 20
-38.832
 30
0.0
 10
290.5919
 20
-40.1064
 30
0.0
 10
290.5919
 20
-40.1064
 30
0.0
  0
SPLINE
  5
82
330
1F
100
AcDbEntity
  8
DEFPOINTS
370
    25
100
AcDbSpline
210
0.0
220
0.0
230
1.0
 70
    24
 71
     3
 72
     8
 73
     4
 74
     0
 42
0.0000000001
 43
0.0000000001
 40
0.0
 40
0.0
 40
0.0
 40
0.0
 40
1.0
 40
1.0
 40
1.0
 40
1.0
 10
290.5919
 20
-40.7567
 30
0.0
 10
290.5919
 20
-40.7567
 30
0.0
 10
290.5919
 20
-42.05699999999999
 30
0.0
 10
290.5919
 20
-42.05699999999999
 30
0.0
  0
SPLINE
  5
83
330
1F
100
AcDbEntity
  8
DEFPOINTS
370
    25
100
AcDbSpline
210
0.0
220
0.0
230
1.0
 70
    24
 71
     3
 72
     8
 73
     4
 74
     0
 42
0.0000000001
 43
0.0000000001
 40
0.0
 40
0.0
 40
0.0
 40
0.0
 40
1.0
 40
1.0
 40
1.0
 40
1.0
 10
290.5919
 20
-42.70729999999999
 30
0.0
 10
290.5919
 20
-42.70729999999999
 30
0.0
 10
290.5919
 20
-44.0076
 30
0.0
 10
290.5919
 20
-44.0076
 30
0.0
  0
SPLINE
  5
84
330
1F
100
AcDbEntity
  8
DEFPOINTS
370
    25
100
AcDbSpline
210
0.0
220
0.0
230
1.0
 70
    24
 71
     3
 72
     8
 73
     4
 74
     0
 42
0.0000000001
 43
0.0000000001
 40
0.0
 40
0.0
 40
0.0
 40
0.0
 40
1.0
 40
1.0
 40
1.0
 40
1.0
 10
290.5919
 20
-44.6318
 30
0.0
 10
290.5919
 20
-44.6318
 30
0.0
 10
290.5919
 20
-45.9321
 30
0.0
 10
290.5919
 20
-45.9321
 30
0.0
  0
SPLINE
  5
85
330
1F
100
AcDbEntity
  8
DEFPOINTS
370
    25
100
AcDbSpline
210
0.0
220
0.0
230
1.0
 70
    24
 71
     3
 72
     8
 73
     4
 74
     0
 42
0.0000000001
 43
0.0000000001
 40
0.0
 40
0.0
 40
0.0
 40
0.0
 40
1.0
 40
1.0
 40
1.0
 40
1.0
 10
290.5919
 20
-46.5824
 30
0.0
 10
290.5919
 20
-46.5824
 30
0.0
 10
290.5919
 20
-47.88269999999999
 30
0.0
 10
290.5919
 20
-47.88269999999999
 30
0.0
  0
SPLINE
  5
86
330
1F
100
AcDbEntity
  8
DEFPOINTS
370
    25
100
AcDbSpline
210
0.0
220
0.0
230
1.0
 70
    24
 71
     3
 72
     8
 73
     4
 74
     0
 42
0.0000000001
 43
0.0000000001
 40
0.0
 40
0.0
 40
0.0
 40
0.0
 40
1.0
 40
1.0
 40
1.0
 40
1.0
 10
290.5919
 20
-48.533
 30
0.0
 10
290.5919
 20
-48.533
 30
0.0
 10
290.5919
 20
-49.8074
 30
0.0
 10
290.5919
 20
-49.8074
 30
0.0
  0
SPLINE
  5
87
330
1F
100
AcDbEntity
  8
DEFPOINTS
370
    25
100
AcDbSpline
210
0.0
220
0.0
230
1.0
 70
    24
 71
     3
 72
     8
 73
     4
 74
     0
 42
0.0000000001
 43
0.0000000001
 40
0.0
 40
0.0
 40
0.0
 40
0.0
 40
1.0
 40
1.0
 40
1.0
 40
1.0
 10
290.5919
 20
-50.4575
 30
0.0
 10
290.5919
 20
-50.4575
 30
0.0
 10
290.5919
 20
-51.758
 30
0.0
 10
290.5919
 20
-51.758
 30
0.0
  0
SPLINE
  5
88
330
1F
100
AcDbEntity
  8
DEFPOINTS
370
    25
100
AcDbSpline
210
0.0
220
0.0
230
1.0
 70
    24
 71
     3
 72
     8
 73
     4
 74
     0
 42
0.0000000001
 43
0.0000000001
 40
0.0
 40
0.0
 40
0.0
 40
0.0
 40
1.0
 40
1.0
 40
1.0
 40
1.0
 10
290.5919
 20
-52.40809999999999
 30
0.0
 10
290.5919
 20
-52.40809999999999
 30
0.0
 10
290.5919
 20
-53.7085
 30
0.0
 10
290.5919
 20
-53.7085
 30
0.0
  0
SPLINE
  5
89
330
1F
100
AcDbEntity
  8
DEFPOINTS
370
    25
100
AcDbSpline
210
0.0
220
0.0
230
1.0
 70
    24
 71
     3
 72
     8
 73
     4
 74
     0
 42
0.0000000001
 43
0.0000000001
 40
0.0
 40
0.0
 40
0.0
 40
0.0
 40
1.0
 40
1.0
 40
1.0
 40
1.0
 10
290.5919
 20
-54.3587
 30
0.0
 10
290.5919
 20
-54.3587
 30
0.0
 10
290.5919
 20
-55.6331
 30
0.0
 10
290.5919
 20
-55.6331
 30
0.0
  0
SPLINE
  5
8A
330
1F
100
AcDbEntity
  8
DEFPOINTS
370
    25
100
AcDbSpline
210
0.0
220
0.0
230
1.0
 70
    24
 71
     3
 72
     8
 73
     4
 74
     0
 42
0.0000000001
 43
0.0000000001
 40
0.0
 40
0.0
 40
0.0
 40
0.0
 40
1.0
 40
1.0
 40
1.0
 40
1.0
 10
290.5919
 20
-56.2833
 30
0.0
 10
290.5919
 20
-56.2833
 30
0.0
 10
290.5919
 20
-57.5837
 30
0.0
 10
290.5919
 20
-57.5837
 30
0.0
  0
SPLINE
  5
8B
330
1F
100
AcDbEntity
  8
DEFPOINTS
370
    25
100
AcDbSpline
210
0.0
220
0.0
230
1.0
 70
    24
 71
     3
 72
     8
 73
     4
 74
     0
 42
0.0000000001
 43
0.0000000001
 40
0.0
 40
0.0
 40
0.0
 40
0.0
 40
1.0
 40
1.0
 40
1.0
 40
1.0
 10
290.5919
 20
-58.23389999999999
 30
0.0
 10
290.5919
 20
-58.23389999999999
 30
0.0
 10
290.5919
 20
-59.5342
 30
0.0
 10
290.5919
 20
-59.5342
 30
0.0
  0
SPLINE
  5
8C
330
1F
100
AcDbEntity
  8
DEFPOINTS
370
    25
100
AcDbSpline
210
0.0
220
0.0
230
1.0
 70
    24
 71
     3
 72
     8
 73
     4
 74
     0
 42
0.0000000001
 43
0.0000000001
 40
0.0
 40
0.0
 40
0.0
 40
0.0
 40
1.0
 40
1.0
 40
1.0
 40
1.0
 10
290.5919
 20
-60.1584
 30
0.0
 10
290.5919
 20
-60.1584
 30
0.0
 10
290.5919
 20
-61.4588
 30
0.0
 10
290.5919
 20
-61.4588
 30
0.0
  0
SPLINE
  5
8D
330
1F
100
AcDbEntity
  8
DEFPOINTS
370
    25
100
AcDbSpline
210
0.0
220
0.0
230
1.0
 70
    24
 71
     3
 72
     8
 73
     4
 74
     0
 42
0.0000000001
 43
0.0000000001
 40
0.0
 40
0.0
 40
0.0
 40
0.0
 40
1.0
 40
1.0
 40
1.0
 40
1.0
 10
290.5919
 20
-62.10899999999999
 30
0.0
 10
290.5919
 20
-62.10899999999999
 30
0.0
 10
290.5919
 20
-63.40939999999999
 30
0.0
 10
290.5919
 20
-63.40939999999999
 30
0.0
  0
SPLINE
  5
8E
330
1F
100
AcDbEntity
  8
DEFPOINTS
370
    25
100
AcDbSpline
210
0.0
220
0.0
230
1.0
 70
    24
 71
     3
 72
     8
 73
     4
 74
     0
 42
0.0000000001
 43
0.0000000001
 40
0.0
 40
0.0
 40
0.0
 40
0.0
 40
1.0
 40
1.0
 40
1.0
 40
1.0
 10
290.5919
 20
-64.0596
 30
0.0
 10
290.5919
 20
-64.0596
 30
0.0
 10
290.5919
 20
-65.334
 30
0.0
 10
290.5919
 20
-65.334
 30
0.0
  0
SPLINE
  5
8F
330
1F
100
AcDbEntity
  8
DEFPOINTS
370
    25
100
AcDbSpline
210
0.0
220
0.0
230
1.0
 70
    24
 71
     3
 72
     8
 73
     4
 74
     0
 42
0.0000000001
 43
0.0000000001
 40
0.0
 40
0.0
 40
0.0
 40
0.0
 40
1.0
 40
1.0
 40
1.0
 40
1.0
 10
290.5919
 20
-65.9841
 30
0.0
 10
290.5919
 20
-65.9841
 30
0.0
 10
290.5919
 20
-67.2846
 30
0.0
 10
290.5919
 20
-67.2846
 30
0.0
  0
SPLINE
  5
90
330
1F
100
AcDbEntity
  8
DEFPOINTS
370
    25
100
AcDbSpline
210
0.0
220
0.0
230
1.0
 70
    24
 71
     3
 72
     8
 73
     4
 74
     0
 42
0.0000000001
 43
0.0000000001
 40
0.0
 40
0.0
 40
0.0
 40
0.0
 40
1.0
 40
1.0
 40
1.0
 40
1.0
 10
290.5919
 20
-67.93470000000001
 30
0.0
 10
290.5919
 20
-67.93470000000001
 30
0.0
 10
290.5919
 20
-69.2352
 30
0.0
 10
290.5919
 20
-69.2352
 30
0.0
  0
SPLINE
  5
91
330
1F
100
AcDbEntity
  8
DEFPOINTS
370
    25
100
AcDbSpline
210
0.0
220
0.0
230
1.0
 70
    24
 71
     3
 72
     8
 73
     4
 74
     0
 42
0.0000000001
 43
0.0000000001
 40
0.0
 40
0.0
 40
0.0
 40
0.0
 40
1.0
 40
1.0
 40
1.0
 40
1.0
 10
290.5919
 20
-69.8853
 30
0.0
 10
290.5919
 20
-69.8853
 30
0.0
 10
290.5919
 20
-71.1597
 30
0.0
 10
290.5919
 20
-71.1597
 30
0.0
  0
SPLINE
  5
92
330
1F
100
AcDbEntity
  8
DEFPOINTS
370
    25
100
AcDbSpline
210
0.0
220
0.0
230
1.0
 70
    24
 71
     3
 72
     8
 73
     4
 74
     0
 42
0.0000000001
 43
0.0000000001
 40
0.0
 40
0.0
 40
0.0
 40
0.0
 40
1.0
 40
1.0
 40
1.0
 40
1.0
 10
290.5919
 20
-71.81
 30
0.0
 10
290.5919
 20
-71.81
 30
0.0
 10
290.5919
 20
-73.11029999999999
 30
0.0
 10
290.5919
 20
-73.11029999999999
 30
0.0
  0
SPLINE
  5
93
330
1F
100
AcDbEntity
  8
DEFPOINTS
370
    25
100
AcDbSpline
210
0.0
220
0.0
230
1.0
 70
    24
 71
     3
 72
     8
 73
     4
 74
     0
 42
0.0000000001
 43
0.0000000001
 40
0.0
 40
0.0
 40
0.0
 40
0.0
 40
1.0
 40
1.0
 40
1.0
 40
1.0
 10
290.5919
 20
-73.76049999999999
 30
0.0
 10
290.5919
 20
-73.76049999999999
 30
0.0
 10
290.5919
 20
-75.0609
 30
0.0
 10
290.5919
 20
-75.0609
 30
0.0
  0
SPLINE
  5
94
330
1F
100
AcDbEntity
  8
DEFPOINTS
370
    25
100
AcDbSpline
210
0.0
220
0.0
230
1.0
 70
    24
 71
     3
 72
     8
 73
     4
 74
     0
 42
0.0000000001
 43
0.0000000001
 40
0.0
 40
0.0
 40
0.0
 40
0.0
 40
1.0
 40
1.0
 40
1.0
 40
1.0
 10
290.5919
 20
-75.6851
 30
0.0
 10
290.5919
 20
-75.6851
 30
0.0
 10
290.5919
 20
-76.9854
 30
0.0
 10
290.5919
 20
-76.9854
 30
0.0
  0
SPLINE
  5
95
330
1F
100
AcDbEntity
  8
DEFPOINTS
370
    25
100
AcDbSpline
210
0.0
220
0.0
230
1.0
 70
    24
 71
     3
 72
     8
 73
     4
 74
     0
 42
0.0000000001
 43
0.0000000001
 40
0.0
 40
0.0
 40
0.0
 40
0.0
 40
1.0
 40
1.0
 40
1.0
 40
1.0
 10
290.5919
 20
-77.6357
 30
0.0
 10
290.5919
 20
-77.6357
 30
0.0
 10
290.5919
 20
-78.93600000000001
 30
0.0
 10
290.5919
 20
-78.93600000000001
 30
0.0
  0
SPLINE
  5
96
330
1F
100
AcDbEntity
  8
DEFPOINTS
370
    25
100
AcDbSpline
210
0.0
220
0.0
230
1.0
 70
     8
 71
     3
 72
    12
 73
     8
 74
     0
 42
0.0000000001
 43
0.0000000001
 40
0.0
 40
0.0
 40
0.0
 40
0.0
 40
0.5
 40
0.5
 40
0.5
 40
0.5
 40
1.0
 40
1.0
 40
1.0
 40
1.0
 10
290.5919
 20
-79.5862
 30
0.0
 10
290.5919
 20
-79.5862
 30
0.0
 10
290.5919
 20
-80.7566
 30
0.0
 10
290.5919
 20
-80.7566
 30
0.0
 10
290.5919
 20
-80.7566
 30
0.0
 10
290.5919
 20
-80.7566
 30
0.0
 10
156.2812
 20
-80.7566
 30
0.0
 10
156.2812
 20
-80.7566
 30
0.0
  0
SPLINE
  5
97
330
1F
100
AcDbEntity
  8
DEFPOINTS
370
    25
100
AcDbSpline
210
0.0
220
0.0
230
1.0
 70
    24
 71
     3
 72
     8
 73
     4
 74
     0
 42
0.0000000001
 43
0.0000000001
 40
0.0
 40
0.0
 40
0.0
 40
0.0
 40
1.0
 40
1.0
 40
1.0
 40
1.0
 10
156.8271
 20
-80.7566
 30
0.0
 10
156.8271
 20
-80.7566
 30
0.0
 10
156.8271
 20
-79.8464
 30
0.0
 10
156.8271
 20
-79.8464
 30
0.0
  0
SPLINE
  5
98
330
1F
100
AcDbEntity
  8
DEFPOINTS
370
    25
100
AcDbSpline
210
0.0
220
0.0
230
1.0
 70
    24
 71
     3
 72
     8
 73
     4
 74
     0
 42
0.0000000001
 43
0.0000000001
 40
0.0
 40
0.0
 40
0.0
 40
0.0
 40
1.0
 40
1.0
 40
1.0
 40
1.0
 10
156.8271
 20
-79.1961
 30
0.0
 10
156.8271
 20
-79.1961
 30
0.0
 10
156.8271
 20
-77.89579999999999
 30
0.0
 10
156.8271
 20
-77.89579999999999
 30
0.0
  0
SPLINE
  5
99
330
1F
100
AcDbEntity
  8
DEFPOINTS
370
    25
100
AcDbSpline
210
0.0
220
0.0
230
1.0
 70
    24
 71
     3
 72
     8
 73
     4
 74
     0
 42
0.0000000001
 43
0.0000000001
 40
0.0
 40
0.0
 40
0.0
 40
0.0
 40
1.0
 40
1.0
 40
1.0
 40
1.0
 10
156.8271
 20
-77.2455
 30
0.0
 10
156.8271
 20
-77.2455
 30
0.0
 10
156.8271
 20
-75.9452
 30
0.0
 10
156.8271
 20
-75.9452
 30
0.0
  0
SPLINE
  5
9A
330
1F
100
AcDbEntity
  8
DEFPOINTS
370
    25
100
AcDbSpline
210
0.0
220
0.0
230
1.0
 70
    24
 71
     3
 72
     8
 73
     4
 74
     0
 42
0.0000000001
 43
0.0000000001
 40
0.0
 40
0.0
 40
0.0
 40
0.0
 40
1.0
 40
1.0
 40
1.0
 40
1.0
 10
156.8271
 20
-75.32099999999999
 30
0.0
 10
156.8271
 20
-75.32099999999999
 30
0.0
 10
156.8271
 20
-74.0205
 30
0.0
 10
156.8271
 20
-74.0205
 30
0.0
  0
SPLINE
  5
9B
330
1F
100
AcDbEntity
  8
DEFPOINTS
370
    25
100
AcDbSpline
210
0.0
220
0.0
230
1.0
 70
    24
 71
     3
 72
     8
 73
     4
 74
     0
 42
0.0000000001
 43
0.0000000001
 40
0.0
 40
0.0
 40
0.0
 40
0.0
 40
1.0
 40
1.0
 40
1.0
 40
1.0
 10
156.8271
 20
-73.3704
 30
0.0
 10
156.8271
 20
-73.3704
 30
0.0
 10
156.8271
 20
-72.06999999999999
 30
0.0
 10
156.8271
 20
-72.06999999999999
 30
0.0
  0
SPLINE
  5
9C
330
1F
100
AcDbEntity
  8
DEFPOINTS
370
    25
100
AcDbSpline
210
0.0
220
0.0
230
1.0
 70
    24
 71
     3
 72
     8
 73
     4
 74
     0
 42
0.0000000001
 43
0.0000000001
 40
0.0
 40
0.0
 40
0.0
 40
0.0
 40
1.0
 40
1.0
 40
1.0
 40
1.0
 10
156.8271
 20
-71.4198
 30
0.0
 10
156.8271
 20
-71.4198
 30
0.0
 10
156.8271
 20
-70.1454
 30
0.0
 10
156.8271
 20
-70.1454
 30
0.0
  0
SPLINE
  5
9D
330
1F
100
AcDbEntity
  8
DEFPOINTS
370
    25
100
AcDbSpline
210
0.0
220
0.0
230
1.0
 70
    24
 71
     3
 72
     8
 73
     4
 74
     0
 42
0.0000000001
 43
0.0000000001
 40
0.0
 40
0.0
 40
0.0
 40
0.0
 40
1.0
 40
1.0
 40
1.0
 40
1.0
 10
156.8271
 20
-69.49519999999999
 30
0.0
 10
156.8271
 20
-69.49519999999999
 30
0.0
 10
156.8271
 20
-68.1948
 30
0.0
 10
156.8271
 20
-68.1948
 30
0.0
  0
SPLINE
  5
9E
330
1F
100
AcDbEntity
  8
DEFPOINTS
370
    25
100
AcDbSpline
210
0.0
220
0.0
230
1.0
 70
    24
 71
     3
 72
     8
 73
     4
 74
     0
 42
0.0000000001
 43
0.0000000001
 40
0.0
 40
0.0
 40
0.0
 40
0.0
 40
1.0
 40
1.0
 40
1.0
 40
1.0
 10
156.8271
 20
-67.5446
 30
0.0
 10
156.8271
 20
-67.5446
 30
0.0
 10
156.8271
 20
-66.2443
 30
0.0
 10
156.8271
 20
-66.2443
 30
0.0
  0
SPLINE
  5
9F
330
1F
100
AcDbEntity
  8
DEFPOINTS
370
    25
100
AcDbSpline
210
0.0
220
0.0
230
1.0
 70
    24
 71
     3
 72
     8
 73
     4
 74
     0
 42
0.0000000001
 43
0.0000000001
 40
0.0
 40
0.0
 40
0.0
 40
0.0
 40
1.0
 40
1.0
 40
1.0
 40
1.0
 10
156.8271
 20
-65.594
 30
0.0
 10
156.8271
 20
-65.594
 30
0.0
 10
156.8271
 20
-64.31969999999999
 30
0.0
 10
156.8271
 20
-64.31969999999999
 30
0.0
  0
SPLINE
  5
A0
330
1F
100
AcDbEntity
  8
DEFPOINTS
370
    25
100
AcDbSpline
210
0.0
220
0.0
230
1.0
 70
    24
 71
     3
 72
     8
 73
     4
 74
     0
 42
0.0000000001
 43
0.0000000001
 40
0.0
 40
0.0
 40
0.0
 40
0.0
 40
1.0
 40
1.0
 40
1.0
 40
1.0
 10
156.8271
 20
-63.6695
 30
0.0
 10
156.8271
 20
-63.6695
 30
0.0
 10
156.8271
 20
-62.3691
 30
0.0
 10
156.8271
 20
-62.3691
 30
0.0
  0
SPLINE
  5
A1
330
1F
100
AcDbEntity
  8
DEFPOINTS
370
    25
100
AcDbSpline
210
0.0
220
0.0
230
1.0
 70
    24
 71
     3
 72
     8
 73
     4
 74
     0
 42
0.0000000001
 43
0.0000000001
 40
0.0
 40
0.0
 40
0.0
 40
0.0
 40
1.0
 40
1.0
 40
1.0
 40
1.0
 10
156.8271
 20
-61.7189
 30
0.0
 10
156.8271
 20
-61.7189
 30
0.0
 10
156.8271
 20
-60.41859999999999
 30
0.0
 10
156.8271
 20
-60.41859999999999
 30
0.0
  0
SPLINE
  5
A2
330
1F
100
AcDbEntity
  8
DEFPOINTS
370
    25
100
AcDbSpline
210
0.0
220
0.0
230
1.0
 70
    24
 71
     3
 72
     8
 73
     4
 74
     0
 42
0.0000000001
 43
0.0000000001
 40
0.0
 40
0.0
 40
0.0
 40
0.0
 40
1.0
 40
1.0
 40
1.0
 40
1.0
 10
156.8271
 20
-59.7944
 30
0.0
 10
156.8271
 20
-59.7944
 30
0.0
 10
156.8271
 20
-58.49389999999999
 30
0.0
 10
156.8271
 20
-58.49389999999999
 30
0.0
  0
SPLINE
  5
A3
330
1F
100
AcDbEntity
  8
DEFPOINTS
370
    25
100
AcDbSpline
210
0.0
220
0.0
230
1.0
 70
    24
 71
     3
 72
     8
 73
     4
 74
     0
 42
0.0000000001
 43
0.0000000001
 40
0.0
 40
0.0
 40
0.0
 40
0.0
 40
1.0
 40
1.0
 40
1.0
 40
1.0
 10
156.8271
 20
-57.8438
 30
0.0
 10
156.8271
 20
-57.8438
 30
0.0
 10
156.8271
 20
-56.5433
 30
0.0
 10
156.8271
 20
-56.5433
 30
0.0
  0
SPLINE
  5
A4
330
1F
100
AcDbEntity
  8
DEFPOINTS
370
    25
100
AcDbSpline
210
0.0
220
0.0
230
1.0
 70
    24
 71
     3
 72
     8
 73
     4
 74
     0
 42
0.0000000001
 43
0.0000000001
 40
0.0
 40
0.0
 40
0.0
 40
0.0
 40
1.0
 40
1.0
 40
1.0
 40
1.0
 10
156.8271
 20
-55.8932
 30
0.0
 10
156.8271
 20
-55.8932
 30
0.0
 10
156.8271
 20
-54.6188
 30
0.0
 10
156.8271
 20
-54.6188
 30
0.0
  0
SPLINE
  5
A5
330
1F
100
AcDbEntity
  8
DEFPOINTS
370
    25
100
AcDbSpline
210
0.0
220
0.0
230
1.0
 70
    24
 71
     3
 72
     8
 73
     4
 74
     0
 42
0.0000000001
 43
0.0000000001
 40
0.0
 40
0.0
 40
0.0
 40
0.0
 40
1.0
 40
1.0
 40
1.0
 40
1.0
 10
156.8271
 20
-53.9685
 30
0.0
 10
156.8271
 20
-53.9685
 30
0.0
 10
156.8271
 20
-52.6682
 30
0.0
 10
156.8271
 20
-52.6682
 30
0.0
  0
SPLINE
  5
A6
330
1F
100
AcDbEntity
  8
DEFPOINTS
370
    25
100
AcDbSpline
210
0.0
220
0.0
230
1.0
 70
    24
 71
     3
 72
     8
 73
     4
 74
     0
 42
0.0000000001
 43
0.0000000001
 40
0.0
 40
0.0
 40
0.0
 40
0.0
 40
1.0
 40
1.0
 40
1.0
 40
1.0
 10
156.8271
 20
-52.018
 30
0.0
 10
156.8271
 20
-52.018
 30
0.0
 10
156.8271
 20
-50.7176
 30
0.0
 10
156.8271
 20
-50.7176
 30
0.0
  0
SPLINE
  5
A7
330
1F
100
AcDbEntity
  8
DEFPOINTS
370
    25
100
AcDbSpline
210
0.0
220
0.0
230
1.0
 70
    24
 71
     3
 72
     8
 73
     4
 74
     0
 42
0.0000000001
 43
0.0000000001
 40
0.0
 40
0.0
 40
0.0
 40
0.0
 40
1.0
 40
1.0
 40
1.0
 40
1.0
 10
156.8271
 20
-50.0674
 30
0.0
 10
156.8271
 20
-50.0674
 30
0.0
 10
156.8271
 20
-48.7931
 30
0.0
 10
156.8271
 20
-48.7931
 30
0.0
  0
SPLINE
  5
A8
330
1F
100
AcDbEntity
  8
DEFPOINTS
370
    25
100
AcDbSpline
210
0.0
220
0.0
230
1.0
 70
    24
 71
     3
 72
     8
 73
     4
 74
     0
 42
0.0000000001
 43
0.0000000001
 40
0.0
 40
0.0
 40
0.0
 40
0.0
 40
1.0
 40
1.0
 40
1.0
 40
1.0
 10
156.8271
 20
-48.1428
 30
0.0
 10
156.8271
 20
-48.1428
 30
0.0
 10
156.8271
 20
-46.8425
 30
0.0
 10
156.8271
 20
-46.8425
 30
0.0
  0
SPLINE
  5
A9
330
1F
100
AcDbEntity
  8
DEFPOINTS
370
    25
100
AcDbSpline
210
0.0
220
0.0
230
1.0
 70
    24
 71
     3
 72
     8
 73
     4
 74
     0
 42
0.0000000001
 43
0.0000000001
 40
0.0
 40
0.0
 40
0.0
 40
0.0
 40
1.0
 40
1.0
 40
1.0
 40
1.0
 10
156.8271
 20
-46.1923
 30
0.0
 10
156.8271
 20
-46.1923
 30
0.0
 10
156.8271
 20
-44.89189999999999
 30
0.0
 10
156.8271
 20
-44.89189999999999
 30
0.0
  0
SPLINE
  5
AA
330
1F
100
AcDbEntity
  8
DEFPOINTS
370
    25
100
AcDbSpline
210
0.0
220
0.0
230
1.0
 70
    24
 71
     3
 72
     8
 73
     4
 74
     0
 42
0.0000000001
 43
0.0000000001
 40
0.0
 40
0.0
 40
0.0
 40
0.0
 40
1.0
 40
1.0
 40
1.0
 40
1.0
 10
156.8271
 20
-44.2677
 30
0.0
 10
156.8271
 20
-44.2677
 30
0.0
 10
156.8271
 20
-42.96719999999999
 30
0.0
 10
156.8271
 20
-42.96719999999999
 30
0.0
  0
SPLINE
  5
AB
330
1F
100
AcDbEntity
  8
DEFPOINTS
370
    25
100
AcDbSpline
210
0.0
220
0.0
230
1.0
 70
    24
 71
     3
 72
     8
 73
     4
 74
     0
 42
0.0000000001
 43
0.0000000001
 40
0.0
 40
0.0
 40
0.0
 40
0.0
 40
1.0
 40
1.0
 40
1.0
 40
1.0
 10
156.8271
 20
-42.3171
 30
0.0
 10
156.8271
 20
-42.3171
 30
0.0
 10
156.8271
 20
-41.0167
 30
0.0
 10
156.8271
 20
-41.0167
 30
0.0
  0
SPLINE
  5
AC
330
1F
100
AcDbEntity
  8
DEFPOINTS
370
    25
100
AcDbSpline
210
0.0
220
0.0
230
1.0
 70
    24
 71
     3
 72
     8
 73
     4
 74
     0
 42
0.0000000001
 43
0.0000000001
 40
0.0
 40
0.0
 40
0.0
 40
0.0
 40
1.0
 40
1.0
 40
1.0
 40
1.0
 10
156.8271
 20
-40.3666
 30
0.0
 10
156.8271
 20
-40.3666
 30
0.0
 10
156.8271
 20
-39.0921
 30
0.0
 10
156.8271
 20
-39.0921
 30
0.0
  0
SPLINE
  5
AD
330
1F
100
AcDbEntity
  8
DEFPOINTS
370
    25
100
AcDbSpline
210
0.0
220
0.0
230
1.0
 70
    24
 71
     3
 72
     8
 73
     4
 74
     0
 42
0.0000000001
 43
0.0000000001
 40
0.0
 40
0.0
 40
0.0
 40
0.0
 40
1.0
 40
1.0
 40
1.0
 40
1.0
 10
156.8271
 20
-38.4419
 30
0.0
 10
156.8271
 20
-38.4419
 30
0.0
 10
156.8271
 20
-37.1415
 30
0.0
 10
156.8271
 20
-37.1415
 30
0.0
  0
SPLINE
  5
AE
330
1F
100
AcDbEntity
  8
DEFPOINTS
370
    25
100
AcDbSpline
210
0.0
220
0.0
230
1.0
 70
    24
 71
     3
 72
     8
 73
     4
 74
     0
 42
0.0000000001
 43
0.0000000001
 40
0.0
 40
0.0
 40
0.0
 40
0.0
 40
1.0
 40
1.0
 40
1.0
 40
1.0
 10
156.8271
 20
-36.4913
 30
0.0
 10
156.8271
 20
-36.4913
 30
0.0
 10
156.8271
 20
-35.191
 30
0.0
 10
156.8271
 20
-35.191
 30
0.0
  0
SPLINE
  5
AF
330
1F
100
AcDbEntity
  8
DEFPOINTS
370
    25
100
AcDbSpline
210
0.0
220
0.0
230
1.0
 70
    24
 71
     3
 72
     8
 73
     4
 74
     0
 42
0.0000000001
 43
0.0000000001
 40
0.0
 40
0.0
 40
0.0
 40
0.0
 40
1.0
 40
1.0
 40
1.0
 40
1.0
 10
156.8271
 20
-34.5407
 30
0.0
 10
156.8271
 20
-34.5407
 30
0.0
 10
156.8271
 20
-33.2664
 30
0.0
 10
156.8271
 20
-33.2664
 30
0.0
  0
SPLINE
  5
B0
330
1F
100
AcDbEntity
  8
DEFPOINTS
370
    25
100
AcDbSpline
210
0.0
220
0.0
230
1.0
 70
    24
 71
     3
 72
     8
 73
     4
 74
     0
 42
0.0000000001
 43
0.0000000001
 40
0.0
 40
0.0
 40
0.0
 40
0.0
 40
1.0
 40
1.0
 40
1.0
 40
1.0
 10
156.8271
 20
-32.6162
 30
0.0
 10
156.8271
 20
-32.6162
 30
0.0
 10
156.8271
 20
-31.3158
 30
0.0
 10
156.8271
 20
-31.3158
 30
0.0
  0
SPLINE
  5
B1
330
1F
100
AcDbEntity
  8
DEFPOINTS
370
    25
100
AcDbSpline
210
0.0
220
0.0
230
1.0
 70
    24
 71
     3
 72
     8
 73
     4
 74
     0
 42
0.0000000001
 43
0.0000000001
 40
0.0
 40
0.0
 40
0.0
 40
0.0
 40
1.0
 40
1.0
 40
1.0
 40
1.0
 10
156.8271
 20
-30.6656
 30
0.0
 10
156.8271
 20
-30.6656
 30
0.0
 10
156.8271
 20
-29.3653
 30
0.0
 10
156.8271
 20
-29.3653
 30
0.0
  0
SPLINE
  5
B2
330
1F
100
AcDbEntity
  8
DEFPOINTS
370
    25
100
AcDbSpline
210
0.0
220
0.0
230
1.0
 70
    24
 71
     3
 72
     8
 73
     4
 74
     0
 42
0.0000000001
 43
0.0000000001
 40
0.0
 40
0.0
 40
0.0
 40
0.0
 40
1.0
 40
1.0
 40
1.0
 40
1.0
 10
156.8271
 20
-28.7411
 30
0.0
 10
156.8271
 20
-28.7411
 30
0.0
 10
156.8271
 20
-27.4406
 30
0.0
 10
156.8271
 20
-27.4406
 30
0.0
  0
SPLINE
  5
B3
330
1F
100
AcDbEntity
  8
DEFPOINTS
370
    25
100
AcDbSpline
210
0.0
220
0.0
230
1.0
 70
    24
 71
     3
 72
     8
 73
     4
 74
     0
 42
0.0000000001
 43
0.0000000001
 40
0.0
 40
0.0
 40
0.0
 40
0.0
 40
1.0
 40
1.0
 40
1.0
 40
1.0
 10
156.8271
 20
-26.7905
 30
0.0
 10
156.8271
 20
-26.7905
 30
0.0
 10
156.8271
 20
-25.49
 30
0.0
 10
156.8271
 20
-25.49
 30
0.0
  0
SPLINE
  5
B4
330
1F
100
AcDbEntity
  8
DEFPOINTS
370
    25
100
AcDbSpline
210
0.0
220
0.0
230
1.0
 70
    24
 71
     3
 72
     8
 73
     4
 74
     0
 42
0.0000000001
 43
0.0000000001
 40
0.0
 40
0.0
 40
0.0
 40
0.0
 40
1.0
 40
1.0
 40
1.0
 40
1.0
 10
156.8271
 20
-24.8399
 30
0.0
 10
156.8271
 20
-24.8399
 30
0.0
 10
156.8271
 20
-23.5655
 30
0.0
 10
156.8271
 20
-23.5655
 30
0.0
  0
SPLINE
  5
B5
330
1F
100
AcDbEntity
  8
DEFPOINTS
370
    25
100
AcDbSpline
210
0.0
220
0.0
230
1.0
 70
    24
 71
     3
 72
     8
 73
     4
 74
     0
 42
0.0000000001
 43
0.0000000001
 40
0.0
 40
0.0
 40
0.0
 40
0.0
 40
1.0
 40
1.0
 40
1.0
 40
1.0
 10
156.8271
 20
-22.9152
 30
0.0
 10
156.8271
 20
-22.9152
 30
0.0
 10
156.8271
 20
-21.6149
 30
0.0
 10
156.8271
 20
-21.6149
 30
0.0
  0
SPLINE
  5
B6
330
1F
100
AcDbEntity
  8
DEFPOINTS
370
    25
100
AcDbSpline
210
0.0
220
0.0
230
1.0
 70
    24
 71
     3
 72
     8
 73
     4
 74
     0
 42
0.0000000001
 43
0.0000000001
 40
0.0
 40
0.0
 40
0.0
 40
0.0
 40
1.0
 40
1.0
 40
1.0
 40
1.0
 10
156.8271
 20
-20.9647
 30
0.0
 10
156.8271
 20
-20.9647
 30
0.0
 10
156.8271
 20
-19.6643
 30
0.0
 10
156.8271
 20
-19.6643
 30
0.0
  0
SPLINE
  5
B7
330
1F
100
AcDbEntity
  8
DEFPOINTS
370
    25
100
AcDbSpline
210
0.0
220
0.0
230
1.0
 70
    24
 71
     3
 72
     8
 73
     4
 74
     0
 42
0.0000000001
 43
0.0000000001
 40
0.0
 40
0.0
 40
0.0
 40
0.0
 40
1.0
 40
1.0
 40
1.0
 40
1.0
 10
156.8271
 20
-19.0141
 30
0.0
 10
156.8271
 20
-19.0141
 30
0.0
 10
156.8271
 20
-17.7398
 30
0.0
 10
156.8271
 20
-17.7398
 30
0.0
  0
SPLINE
  5
B8
330
1F
100
AcDbEntity
  8
DEFPOINTS
370
    25
100
AcDbSpline
210
0.0
220
0.0
230
1.0
 70
    24
 71
     3
 72
     8
 73
     4
 74
     0
 42
0.0000000001
 43
0.0000000001
 40
0.0
 40
0.0
 40
0.0
 40
0.0
 40
1.0
 40
1.0
 40
1.0
 40
1.0
 10
156.8271
 20
-17.0895
 30
0.0
 10
156.8271
 20
-17.0895
 30
0.0
 10
156.8271
 20
-15.7892
 30
0.0
 10
156.8271
 20
-15.7892
 30
0.0
  0
SPLINE
  5
B9
330
1F
100
AcDbEntity
  8
DEFPOINTS
370
    25
100
AcDbSpline
210
0.0
220
0.0
230
1.0
 70
    24
 71
     3
 72
     8
 73
     4
 74
     0
 42
0.0000000001
 43
0.0000000001
 40
0.0
 40
0.0
 40
0.0
 40
0.0
 40
1.0
 40
1.0
 40
1.0
 40
1.0
 10
156.8271
 20
-15.139
 30
0.0
 10
156.8271
 20
-15.139
 30
0.0
 10
156.8271
 20
-13.8386
 30
0.0
 10
156.8271
 20
-13.8386
 30
0.0
  0
SPLINE
  5
BA
330
1F
100
AcDbEntity
  8
DEFPOINTS
370
    25
100
AcDbSpline
210
0.0
220
0.0
230
1.0
 70
    24
 71
     3
 72
     8
 73
     4
 74
     0
 42
0.0000000001
 43
0.0000000001
 40
0.0
 40
0.0
 40
0.0
 40
0.0
 40
1.0
 40
1.0
 40
1.0
 40
1.0
 10
156.8271
 20
-13.2144
 30
0.0
 10
156.8271
 20
-13.2144
 30
0.0
 10
156.8271
 20
-11.914
 30
0.0
 10
156.8271
 20
-11.914
 30
0.0
  0
SPLINE
  5
BB
330
1F
100
AcDbEntity
  8
DEFPOINTS
370
    25
100
AcDbSpline
210
0.0
220
0.0
230
1.0
 70
    24
 71
     3
 72
     8
 73
     4
 74
     0
 42
0.0000000001
 43
0.0000000001
 40
0.0
 40
0.0
 40
0.0
 40
0.0
 40
1.0
 40
1.0
 40
1.0
 40
1.0
 10
156.8271
 20
-11.2638
 30
0.0
 10
156.8271
 20
-11.2638
 30
0.0
 10
156.8271
 20
-9.9634
 30
0.0
 10
156.8271
 20
-9.9634
 30
0.0
  0
SPLINE
  5
BC
330
1F
100
AcDbEntity
  8
DEFPOINTS
370
    25
100
AcDbSpline
210
0.0
220
0.0
230
1.0
 70
    24
 71
     3
 72
     8
 73
     4
 74
     0
 42
0.0000000001
 43
0.0000000001
 40
0.0
 40
0.0
 40
0.0
 40
0.0
 40
1.0
 40
1.0
 40
1.0
 40
1.0
 10
156.8271
 20
-9.313299999999999
 30
0.0
 10
156.8271
 20
-9.313299999999999
 30
0.0
 10
156.8271
 20
-8.0388
 30
0.0
 10
156.8271
 20
-8.0388
 30
0.0
  0
SPLINE
  5
BD
330
1F
100
AcDbEntity
  8
DEFPOINTS
370
    25
100
AcDbSpline
210
0.0
220
0.0
230
1.0
 70
    24
 71
     3
 72
     8
 73
     4
 74
     0
 42
0.0000000001
 43
0.0000000001
 40
0.0
 40
0.0
 40
0.0
 40
0.0
 40
1.0
 40
1.0
 40
1.0
 40
1.0
 10
156.8271
 20
-7.3886
 30
0.0
 10
156.8271
 20
-7.3886
 30
0.0
 10
156.8271
 20
-6.0883
 30
0.0
 10
156.8271
 20
-6.0883
 30
0.0
  0
SPLINE
  5
BE
330
1F
100
AcDbEntity
  8
DEFPOINTS
370
    25
100
AcDbSpline
210
0.0
220
0.0
230
1.0
 70
    24
 71
     3
 72
     8
 73
     4
 74
     0
 42
0.0000000001
 43
0.0000000001
 40
0.0
 40
0.0
 40
0.0
 40
0.0
 40
1.0
 40
1.0
 40
1.0
 40
1.0
 10
156.8271
 20
-5.437999999999999
 30
0.0
 10
156.8271
 20
-5.437999999999999
 30
0.0
 10
156.8271
 20
-4.501699999999999
 30
0.0
 10
156.8271
 20
-4.501699999999999
 30
0.0
  0
SPLINE
  5
BF
330
1F
100
AcDbEntity
  8
DEFPOINTS
370
    25
100
AcDbSpline
210
0.0
220
0.0
230
1.0
 70
    24
 71
     3
 72
     8
 73
     4
 74
     0
 42
0.0000000001
 43
0.0000000001
 40
0.0
 40
0.0
 40
0.0
 40
0.0
 40
1.0
 40
1.0
 40
1.0
 40
1.0
 10
290.046
 20
-4.501699999999999
 30
0.0
 10
290.046
 20
-4.501699999999999
 30
0.0
 10
290.046
 20
-5.437999999999999
 30
0.0
 10
290.046
 20
-5.437999999999999
 30
0.0
  0
SPLINE
  5
C0
330
1F
100
AcDbEntity
  8
DEFPOINTS
370
    25
100
AcDbSpline
210
0.0
220
0.0
230
1.0
 70
    24
 71
     3
 72
     8
 73
     4
 74
     0
 42
0.0000000001
 43
0.0000000001
 40
0.0
 40
0.0
 40
0.0
 40
0.0
 40
1.0
 40
1.0
 40
1.0
 40
1.0
 10
290.046
 20
-6.0883
 30
0.0
 10
290.046
 20
-6.0883
 30
0.0
 10
290.046
 20
-7.3886
 30
0.0
 10
290.046
 20
-7.3886
 30
0.0
  0
SPLINE
  5
C1
330
1F
100
AcDbEntity
  8
DEFPOINTS
370
    25
100
AcDbSpline
210
0.0
220
0.0
230
1.0
 70
    24
 71
     3
 72
     8
 73
     4
 74
     0
 42
0.0000000001
 43
0.0000000001
 40
0.0
 40
0.0
 40
0.0
 40
0.0
 40
1.0
 40
1.0
 40
1.0
 40
1.0
 10
290.046
 20
-8.0388
 30
0.0
 10
290.046
 20
-8.0388
 30
0.0
 10
290.046
 20
-9.313299999999999
 30
0.0
 10
290.046
 20
-9.313299999999999
 30
0.0
  0
SPLINE
  5
C2
330
1F
100
AcDbEntity
  8
DEFPOINTS
370
    25
100
AcDbSpline
210
0.0
220
0.0
230
1.0
 70
    24
 71
     3
 72
     8
 73
     4
 74
     0
 42
0.0000000001
 43
0.0000000001
 40
0.0
 40
0.0
 40
0.0
 40
0.0
 40
1.0
 40
1.0
 40
1.0
 40
1.0
 10
290.046
 20
-9.9634
 30
0.0
 10
290.046
 20
-9.9634
 30
0.0
 10
290.046
 20
-11.2638
 30
0.0
 10
290.046
 20
-11.2638
 30
0.0
  0
SPLINE
  5
C3
330
1F
100
AcDbEntity
  8
DEFPOINTS
370
    25
100
AcDbSpline
210
0.0
220
0.0
230
1.0
 70
    24
 71
     3
 72
     8
 73
     4
 74
     0
 42
0.0000000001
 43
0.0000000001
 40
0.0
 40
0.0
 40
0.0
 40
0.0
 40
1.0
 40
1.0
 40
1.0
 40
1.0
 10
290.046
 20
-11.914
 30
0.0
 10
290.046
 20
-11.914
 30
0.0
 10
290.046
 20
-13.2144
 30
0.0
 10
290.046
 20
-13.2144
 30
0.0
  0
SPLINE
  5
C4
330
1F
100
AcDbEntity
  8
DEFPOINTS
370
    25
100
AcDbSpline
210
0.0
220
0.0
230
1.0
 70
    24
 71
     3
 72
     8
 73
     4
 74
     0
 42
0.0000000001
 43
0.0000000001
 40
0.0
 40
0.0
 40
0.0
 40
0.0
 40
1.0
 40
1.0
 40
1.0
 40
1.0
 10
290.046
 20
-13.8386
 30
0.0
 10
290.046
 20
-13.8386
 30
0.0
 10
290.046
 20
-15.139
 30
0.0
 10
290.046
 20
-15.139
 30
0.0
  0
SPLINE
  5
C5
330
1F
100
AcDbEntity
  8
DEFPOINTS
370
    25
100
AcDbSpline
210
0.0
220
0.0
230
1.0
 70
    24
 71
     3
 72
     8
 73
     4
 74
     0
 42
0.0000000001
 43
0.0000000001
 40
0.0
 40
0.0
 40
0.0
 40
0.0
 40
1.0
 40
1.0
 40
1.0
 40
1.0
 10
290.046
 20
-15.7892
 30
0.0
 10
290.046
 20
-15.7892
 30
0.0
 10
290.046
 20
-17.0895
 30
0.0
 10
290.046
 20
-17.0895
 30
0.0
  0
SPLINE
  5
C6
330
1F
100
AcDbEntity
  8
DEFPOINTS
370
    25
100
AcDbSpline
210
0.0
220
0.0
230
1.0
 70
    24
 71
     3
 72
     8
 73
     4
 74
     0
 42
0.0000000001
 43
0.0000000001
 40
0.0
 40
0.0
 40
0.0
 40
0.0
 40
1.0
 40
1.0
 40
1.0
 40
1.0
 10
290.046
 20
-17.7398
 30
0.0
 10
290.046
 20
-17.7398
 30
0.0
 10
290.046
 20
-19.0141
 30
0.0
 10
290.046
 20
-19.0141
 30
0.0
  0
SPLINE
  5
C7
330
1F
100
AcDbEntity
  8
DEFPOINTS
370
    25
100
AcDbSpline
210
0.0
220
0.0
230
1.0
 70
    24
 71
     3
 72
     8
 73
     4
 74
     0
 42
0.0000000001
 43
0.0000000001
 40
0.0
 40
0.0
 40
0.0
 40
0.0
 40
1.0
 40
1.0
 40
1.0
 40
1.0
 10
290.046
 20
-19.6643
 30
0.0
 10
290.046
 20
-19.6643
 30
0.0
 10
290.046
 20
-20.9647
 30
0.0
 10
290.046
 20
-20.9647
 30
0.0
  0
SPLINE
  5
C8
330
1F
100
AcDbEntity
  8
DEFPOINTS
370
    25
100
AcDbSpline
210
0.0
220
0.0
230
1.0
 70
    24
 71
     3
 72
     8
 73
     4
 74
     0
 42
0.0000000001
 43
0.0000000001
 40
0.0
 40
0.0
 40
0.0
 40
0.0
 40
1.0
 40
1.0
 40
1.0
 40
1.0
 10
290.046
 20
-21.6149
 30
0.0
 10
290.046
 20
-21.6149
 30
0.0
 10
290.046
 20
-22.9152
 30
0.0
 10
290.046
 20
-22.9152
 30
0.0
  0
SPLINE
  5
C9
330
1F
100
AcDbEntity
  8
DEFPOINTS
370
    25
100
AcDbSpline
210
0.0
220
0.0
230
1.0
 70
    24
 71
     3
 72
     8
 73
     4
 74
     0
 42
0.0000000001
 43
0.0000000001
 40
0.0
 40
0.0
 40
0.0
 40
0.0
 40
1.0
 40
1.0
 40
1.0
 40
1.0
 10
290.046
 20
-23.5655
 30
0.0
 10
290.046
 20
-23.5655
 30
0.0
 10
290.046
 20
-24.8399
 30
0.0
 10
290.046
 20
-24.8399
 30
0.0
  0
SPLINE
  5
CA
330
1F
100
AcDbEntity
  8
DEFPOINTS
370
    25
100
AcDbSpline
210
0.0
220
0.0
230
1.0
 70
    24
 71
     3
 72
     8
 73
     4
 74
     0
 42
0.0000000001
 43
0.0000000001
 40
0.0
 40
0.0
 40
0.0
 40
0.0
 40
1.0
 40
1.0
 40
1.0
 40
1.0
 10
290.046
 20
-25.49
 30
0.0
 10
290.046
 20
-25.49
 30
0.0
 10
290.046
 20
-26.7905
 30
0.0
 10
290.046
 20
-26.7905
 30
0.0
  0
SPLINE
  5
CB
330
1F
100
AcDbEntity
  8
DEFPOINTS
370
    25
100
AcDbSpline
210
0.0
220
0.0
230
1.0
 70
    24
 71
     3
 72
     8
 73
     4
 74
     0
 42
0.0000000001
 43
0.0000000001
 40
0.0
 40
0.0
 40
0.0
 40
0.0
 40
1.0
 40
1.0
 40
1.0
 40
1.0
 10
290.046
 20
-27.4406
 30
0.0
 10
290.046
 20
-27.4406
 30
0.0
 10
290.046
 20
-28.7411
 30
0.0
 10
290.046
 20
-28.7411
 30
0.0
  0
SPLINE
  5
CC
330
1F
100
AcDbEntity
  8
DEFPOINTS
370
    25
100
AcDbSpline
210
0.0
220
0.0
230
1.0
 70
    24
 71
     3
 72
     8
 73
     4
 74
     0
 42
0.0000000001
 43
0.0000000001
 40
0.0
 40
0.0
 40
0.0
 40
0.0
 40
1.0
 40
1.0
 40
1.0
 40
1.0
 10
290.046
 20
-29.3653
 30
0.0
 10
290.046
 20
-29.3653
 30
0.0
 10
290.046
 20
-30.6656
 30
0.0
 10
290.046
 20
-30.6656
 30
0.0
  0
SPLINE
  5
CD
330
1F
100
AcDbEntity
  8
DEFPOINTS
370
    25
100
AcDbSpline
210
0.0
220
0.0
230
1.0
 70
    24
 71
     3
 72
     8
 73
     4
 74
     0
 42
0.0000000001
 43
0.0000000001
 40
0.0
 40
0.0
 40
0.0
 40
0.0
 40
1.0
 40
1.0
 40
1.0
 40
1.0
 10
290.046
 20
-31.3158
 30
0.0
 10
290.046
 20
-31.3158
 30
0.0
 10
290.046
 20
-32.6162
 30
0.0
 10
290.046
 20
-32.6162
 30
0.0
  0
SPLINE
  5
CE
330
1F
100
AcDbEntity
  8
DEFPOINTS
370
    25
100
AcDbSpline
210
0.0
220
0.0
230
1.0
 70
    24
 71
     3
 72
     8
 73
     4
 74
     0
 42
0.0000000001
 43
0.0000000001
 40
0.0
 40
0.0
 40
0.0
 40
0.0
 40
1.0
 40
1.0
 40
1.0
 40
1.0
 10
290.046
 20
-33.2664
 30
0.0
 10
290.046
 20
-33.2664
 30
0.0
 10
290.046
 20
-34.5407
 30
0.0
 10
290.046
 20
-34.5407
 30
0.0
  0
SPLINE
  5
CF
330
1F
100
AcDbEntity
  8
DEFPOINTS
370
    25
100
AcDbSpline
210
0.0
220
0.0
230
1.0
 70
    24
 71
     3
 72
     8
 73
     4
 74
     0
 42
0.0000000001
 43
0.0000000001
 40
0.0
 40
0.0
 40
0.0
 40
0.0
 40
1.0
 40
1.0
 40
1.0
 40
1.0
 10
290.046
 20
-35.191
 30
0.0
 10
290.046
 20
-35.191
 30
0.0
 10
290.046
 20
-36.4913
 30
0.0
 10
290.046
 20
-36.4913
 30
0.0
  0
SPLINE
  5
D0
330
1F
100
AcDbEntity
  8
DEFPOINTS
370
    25
100
AcDbSpline
210
0.0
220
0.0
230
1.0
 70
    24
 71
     3
 72
     8
 73
     4
 74
     0
 42
0.0000000001
 43
0.0000000001
 40
0.0
 40
0.0
 40
0.0
 40
0.0
 40
1.0
 40
1.0
 40
1.0
 40
1.0
 10
290.046
 20
-37.1415
 30
0.0
 10
290.046
 20
-37.1415
 30
0.0
 10
290.046
 20
-38.4419
 30
0.0
 10
290.046
 20
-38.4419
 30
0.0
  0
SPLINE
  5
D1
330
1F
100
AcDbEntity
  8
DEFPOINTS
370
    25
100
AcDbSpline
210
0.0
220
0.0
230
1.0
 70
    24
 71
     3
 72
     8
 73
     4
 74
     0
 42
0.0000000001
 43
0.0000000001
 40
0.0
 40
0.0
 40
0.0
 40
0.0
 40
1.0
 40
1.0
 40
1.0
 40
1.0
 10
290.046
 20
-39.0921
 30
0.0
 10
290.046
 20
-39.0921
 30
0.0
 10
290.046
 20
-40.3666
 30
0.0
 10
290.046
 20
-40.3666
 30
0.0
  0
SPLINE
  5
D2
330
1F
100
AcDbEntity
  8
DEFPOINTS
370
    25
100
AcDbSpline
210
0.0
220
0.0
230
1.0
 70
    24
 71
     3
 72
     8
 73
     4
 74
     0
 42
0.0000000001
 43
0.0000000001
 40
0.0
 40
0.0
 40
0.0
 40
0.0
 40
1.0
 40
1.0
 40
1.0
 40
1.0
 10
290.046
 20
-41.0167
 30
0.0
 10
290.046
 20
-41.0167
 30
0.0
 10
290.046
 20
-42.3171
 30
0.0
 10
290.046
 20
-42.3171
 30
0.0
  0
SPLINE
  5
D3
330
1F
100
AcDbEntity
  8
DEFPOINTS
370
    25
100
AcDbSpline
210
0.0
220
0.0
230
1.0
 70
    24
 71
     3
 72
     8
 73
     4
 74
     0
 42
0.0000000001
 43
0.0000000001
 40
0.0
 40
0.0
 40
0.0
 40
0.0
 40
1.0
 40
1.0
 40
1.0
 40
1.0
 10
290.046
 20
-42.96719999999999
 30
0.0
 10
290.046
 20
-42.96719999999999
 30
0.0
 10
290.046
 20
-44.2677
 30
0.0
 10
290.046
 20
-44.2677
 30
0.0
  0
SPLINE
  5
D4
330
1F
100
AcDbEntity
  8
DEFPOINTS
370
    25
100
AcDbSpline
210
0.0
220
0.0
230
1.0
 70
    24
 71
     3
 72
     8
 73
     4
 74
     0
 42
0.0000000001
 43
0.0000000001
 40
0.0
 40
0.0
 40
0.0
 40
0.0
 40
1.0
 40
1.0
 40
1.0
 40
1.0
 10
290.046
 20
-44.89189999999999
 30
0.0
 10
290.046
 20
-44.89189999999999
 30
0.0
 10
290.046
 20
-46.1923
 30
0.0
 10
290.046
 20
-46.1923
 30
0.0
  0
SPLINE
  5
D5
330
1F
100
AcDbEntity
  8
DEFPOINTS
370
    25
100
AcDbSpline
210
0.0
220
0.0
230
1.0
 70
    24
 71
     3
 72
     8
 73
     4
 74
     0
 42
0.0000000001
 43
0.0000000001
 40
0.0
 40
0.0
 40
0.0
 40
0.0
 40
1.0
 40
1.0
 40
1.0
 40
1.0
 10
290.046
 20
-46.8425
 30
0.0
 10
290.046
 20
-46.8425
 30
0.0
 10
290.046
 20
-48.1428
 30
0.0
 10
290.046
 20
-48.1428
 30
0.0
  0
SPLINE
  5
D6
330
1F
100
AcDbEntity
  8
DEFPOINTS
370
    25
100
AcDbSpline
210
0.0
220
0.0
230
1.0
 70
    24
 71
     3
 72
     8
 73
     4
 74
     0
 42
0.0000000001
 43
0.0000000001
 40
0.0
 40
0.0
 40
0.0
 40
0.0
 40
1.0
 40
1.0
 40
1.0
 40
1.0
 10
290.046
 20
-48.7931
 30
0.0
 10
290.046
 20
-48.7931
 30
0.0
 10
290.046
 20
-50.0674
 30
0.0
 10
290.046
 20
-50.0674
 30
0.0
  0
SPLINE
  5
D7
330
1F
100
AcDbEntity
  8
DEFPOINTS
370
    25
100
AcDbSpline
210
0.0
220
0.0
230
1.0
 70
    24
 71
     3
 72
     8
 73
     4
 74
     0
 42
0.0000000001
 43
0.0000000001
 40
0.0
 40
0.0
 40
0.0
 40
0.0
 40
1.0
 40
1.0
 40
1.0
 40
1.0
 10
290.046
 20
-50.7176
 30
0.0
 10
290.046
 20
-50.7176
 30
0.0
 10
290.046
 20
-52.018
 30
0.0
 10
290.046
 20
-52.018
 30
0.0
  0
SPLINE
  5
D8
330
1F
100
AcDbEntity
  8
DEFPOINTS
370
    25
100
AcDbSpline
210
0.0
220
0.0
230
1.0
 70
    24
 71
     3
 72
     8
 73
     4
 74
     0
 42
0.0000000001
 43
0.0000000001
 40
0.0
 40
0.0
 40
0.0
 40
0.0
 40
1.0
 40
1.0
 40
1.0
 40
1.0
 10
290.046
 20
-52.6682
 30
0.0
 10
290.046
 20
-52.6682
 30
0.0
 10
290.046
 20
-53.9685
 30
0.0
 10
290.046
 20
-53.9685
 30
0.0
  0
SPLINE
  5
D9
330
1F
100
AcDbEntity
  8
DEFPOINTS
370
    25
100
AcDbSpline
210
0.0
220
0.0
230
1.0
 70
    24
 71
     3
 72
     8
 73
     4
 74
     0
 42
0.0000000001
 43
0.0000000001
 40
0.0
 40
0.0
 40
0.0
 40
0.0
 40
1.0
 40
1.0
 40
1.0
 40
1.0
 10
290.046
 20
-54.6188
 30
0.0
 10
290.046
 20
-54.6188
 30
0.0
 10
290.046
 20
-55.8932
 30
0.0
 10
290.046
 20
-55.8932
 30
0.0
  0
SPLINE
  5
DA
330
1F
100
AcDbEntity
  8
DEFPOINTS
370
    25
100
AcDbSpline
210
0.0
220
0.0
230
1.0
 70
    24
 71
     3
 72
     8
 73
     4
 74
     0
 42
0.0000000001
 43
0.0000000001
 40
0.0
 40
0.0
 40
0.0
 40
0.0
 40
1.0
 40
1.0
 40
1.0
 40
1.0
 10
290.046
 20
-56.5433
 30
0.0
 10
290.046
 20
-56.5433
 30
0.0
 10
290.046
 20
-57.8438
 30
0.0
 10
290.046
 20
-57.8438
 30
0.0
  0
SPLINE
  5
DB
330
1F
100
AcDbEntity
  8
DEFPOINTS
370
    25
100
AcDbSpline
210
0.0
220
0.0
230
1.0
 70
    24
 71
     3
 72
     8
 73
     4
 74
     0
 42
0.0000000001
 43
0.0000000001
 40
0.0
 40
0.0
 40
0.0
 40
0.0
 40
1.0
 40
1.0
 40
1.0
 40
1.0
 10
290.046
 20
-58.49389999999999
 30
0.0
 10
290.046
 20
-58.49389999999999
 30
0.0
 10
290.046
 20
-59.7944
 30
0.0
 10
290.046
 20
-59.7944
 30
0.0
  0
SPLINE
  5
DC
330
1F
100
AcDbEntity
  8
DEFPOINTS
370
    25
100
AcDbSpline
210
0.0
220
0.0
230
1.0
 70
    24
 71
     3
 72
     8
 73
     4
 74
     0
 42
0.0000000001
 43
0.0000000001
 40
0.0
 40
0.0
 40
0.0
 40
0.0
 40
1.0
 40
1.0
 40
1.0
 40
1.0
 10
290.046
 20
-60.41859999999999
 30
0.0
 10
290.046
 20
-60.41859999999999
 30
0.0
 10
290.046
 20
-61.7189
 30
0.0
 10
290.046
 20
-61.7189
 30
0.0
  0
SPLINE
  5
DD
330
1F
100
AcDbEntity
  8
DEFPOINTS
370
    25
100
AcDbSpline
210
0.0
220
0.0
230
1.0
 70
    24
 71
     3
 72
     8
 73
     4
 74
     0
 42
0.0000000001
 43
0.0000000001
 40
0.0
 40
0.0
 40
0.0
 40
0.0
 40
1.0
 40
1.0
 40
1.0
 40
1.0
 10
290.046
 20
-62.3691
 30
0.0
 10
290.046
 20
-62.3691
 30
0.0
 10
290.046
 20
-63.6695
 30
0.0
 10
290.046
 20
-63.6695
 30
0.0
  0
SPLINE
  5
DE
330
1F
100
AcDbEntity
  8
DEFPOINTS
370
    25
100
AcDbSpline
210
0.0
220
0.0
230
1.0
 70
    24
 71
     3
 72
     8
 73
     4
 74
     0
 42
0.0000000001
 43
0.0000000001
 40
0.0
 40
0.0
 40
0.0
 40
0.0
 40
1.0
 40
1.0
 40
1.0
 40
1.0
 10
290.046
 20
-64.31969999999999
 30
0.0
 10
290.046
 20
-64.31969999999999
 30
0.0
 10
290.046
 20
-65.594
 30
0.0
 10
290.046
 20
-65.594
 30
0.0
  0
SPLINE
  5
DF
330
1F
100
AcDbEntity
  8
DEFPOINTS
370
    25
100
AcDbSpline
210
0.0
220
0.0
230
1.0
 70
    24
 71
     3
 72
     8
 73
     4
 74
     0
 42
0.0000000001
 43
0.0000000001
 40
0.0
 40
0.0
 40
0.0
 40
0.0
 40
1.0
 40
1.0
 40
1.0
 40
1.0
 10
290.046
 20
-66.2443
 30
0.0
 10
290.046
 20
-66.2443
 30
0.0
 10
290.046
 20
-67.5446
 30
0.0
 10
290.046
 20
-67.5446
 30
0.0
  0
SPLINE
  5
E0
330
1F
100
AcDbEntity
  8
DEFPOINTS
370
    25
100
AcDbSpline
210
0.0
220
0.0
230
1.0
 70
    24
 71
     3
 72
     8
 73
     4
 74
     0
 42
0.0000000001
 43
0.0000000001
 40
0.0
 40
0.0
 40
0.0
 40
0.0
 40
1.0
 40
1.0
 40
1.0
 40
1.0
 10
290.046
 20
-68.1948
 30
0.0
 10
290.046
 20
-68.1948
 30
0.0
 10
290.046
 20
-69.49519999999999
 30
0.0
 10
290.046
 20
-69.49519999999999
 30
0.0
  0
SPLINE
  5
E1
330
1F
100
AcDbEntity
  8
DEFPOINTS
370
    25
100
AcDbSpline
210
0.0
220
0.0
230
1.0
 70
    24
 71
     3
 72
     8
 73
     4
 74
     0
 42
0.0000000001
 43
0.0000000001
 40
0.0
 40
0.0
 40
0.0
 40
0.0
 40
1.0
 40
1.0
 40
1.0
 40
1.0
 10
290.046
 20
-70.1454
 30
0.0
 10
290.046
 20
-70.1454
 30
0.0
 10
290.046
 20
-71.4198
 30
0.0
 10
290.046
 20
-71.4198
 30
0.0
  0
SPLINE
  5
E2
330
1F
100
AcDbEntity
  8
DEFPOINTS
370
    25
100
AcDbSpline
210
0.0
220
0.0
230
1.0
 70
    24
 71
     3
 72
     8
 73
     4
 74
     0
 42
0.0000000001
 43
0.0000000001
 40
0.0
 40
0.0
 40
0.0
 40
0.0
 40
1.0
 40
1.0
 40
1.0
 40
1.0
 10
290.046
 20
-72.06999999999999
 30
0.0
 10
290.046
 20
-72.06999999999999
 30
0.0
 10
290.046
 20
-73.3704
 30
0.0
 10
290.046
 20
-73.3704
 30
0.0
  0
SPLINE
  5
E3
330
1F
100
AcDbEntity
  8
DEFPOINTS
370
    25
100
AcDbSpline
210
0.0
220
0.0
230
1.0
 70
    24
 71
     3
 72
     8
 73
     4
 74
     0
 42
0.0000000001
 43
0.0000000001
 40
0.0
 40
0.0
 40
0.0
 40
0.0
 40
1.0
 40
1.0
 40
1.0
 40
1.0
 10
290.046
 20
-74.0205
 30
0.0
 10
290.046
 20
-74.0205
 30
0.0
 10
290.046
 20
-75.32099999999999
 30
0.0
 10
290.046
 20
-75.32099999999999
 30
0.0
  0
SPLINE
  5
E4
330
1F
100
AcDbEntity
  8
DEFPOINTS
370
    25
100
AcDbSpline
210
0.0
220
0.0
230
1.0
 70
    24
 71
     3
 72
     8
 73
     4
 74
     0
 42
0.0000000001
 43
0.0000000001
 40
0.0
 40
0.0
 40
0.0
 40
0.0
 40
1.0
 40
1.0
 40
1.0
 40
1.0
 10
290.046
 20
-75.9452
 30
0.0
 10
290.046
 20
-75.9452
 30
0.0
 10
290.046
 20
-77.2455
 30
0.0
 10
290.046
 20
-77.2455
 30
0.0
  0
SPLINE
  5
E5
330
1F
100
AcDbEntity
  8
DEFPOINTS
370
    25
100
AcDbSpline
210
0.0
220
0.0
230
1.0
 70
    24
 71
     3
 72
     8
 73
     4
 74
     0
 42
0.0000000001
 43
0.0000000001
 40
0.0
 40
0.0
 40
0.0
 40
0.0
 40
1.0
 40
1.0
 40
1.0
 40
1.0
 10
290.046
 20
-77.89579999999999
 30
0.0
 10
290.046
 20
-77.89579999999999
 30
0.0
 10
290.046
 20
-79.1961
 30
0.0
 10
290.046
 20
-79.1961
 30
0.0
  0
SPLINE
  5
E6
330
1F
100
AcDbEntity
  8
DEFPOINTS
370
    25
100
AcDbSpline
210
0.0
220
0.0
230
1.0
 70
    24
 71
     3
 72
     8
 73
     4
 74
     0
 42
0.0000000001
 43
0.0000000001
 40
0.0
 40
0.0
 40
0.0
 40
0.0
 40
1.0
 40
1.0
 40
1.0
 40
1.0
 10
290.046
 20
-79.8464
 30
0.0
 10
290.046
 20
-79.8464
 30
0.0
 10
290.046
 20
-80.7566
 30
0.0
 10
290.046
 20
-80.7566
 30
0.0
  0
SPLINE
  5
E7
330
1F
100
AcDbEntity
  8
DEFPOINTS
370
    25
100
AcDbSpline
210
0.0
220
0.0
230
1.0
 70
    24
 71
     3
 72
     8
 73
     4
 74
     0
 42
0.0000000001
 43
0.0000000001
 40
0.0
 40
0.0
 40
0.0
 40
0.0
 40
1.0
 40
1.0
 40
1.0
 40
1.0
 10
159.5291
 20
-1.926999999999999
 30
0.0
 10
159.5291
 20
-1.926999999999999
 30
0.0
 10
160.9757
 20
-1.926999999999999
 30
0.0
 10
160.9757
 20
-1.926999999999999
 30
0.0
  0
SPLINE
  5
E8
330
1F
100
AcDbEntity
  8
DEFPOINTS
370
    25
100
AcDbSpline
210
0.0
220
0.0
230
1.0
 70
    24
 71
     3
 72
     8
 73
     4
 74
     0
 42
0.0000000001
 43
0.0000000001
 40
0.0
 40
0.0
 40
0.0
 40
0.0
 40
1.0
 40
1.0
 40
1.0
 40
1.0
 10
161.658
 20
-1.926999999999999
 30
0.0
 10
161.658
 20
-1.926999999999999
 30
0.0
 10
163.0227
 20
-1.926999999999999
 30
0.0
 10
163.0227
 20
-1.926999999999999
 30
0.0
  0
SPLINE
  5
E9
330
1F
100
AcDbEntity
  8
DEFPOINTS
370
    25
100
AcDbSpline
210
0.0
220
0.0
230
1.0
 70
    24
 71
     3
 72
     8
 73
     4
 74
     0
 42
0.0000000001
 43
0.0000000001
 40
0.0
 40
0.0
 40
0.0
 40
0.0
 40
1.0
 40
1.0
 40
1.0
 40
1.0
 10
163.705
 20
-1.926999999999999
 30
0.0
 10
163.705
 20
-1.926999999999999
 30
0.0
 10
165.0424
 20
-1.926999999999999
 30
0.0
 10
165.0424
 20
-1.926999999999999
 30
0.0
  0
SPLINE
  5
EA
330
1F
100
AcDbEntity
  8
DEFPOINTS
370
    25
100
AcDbSpline
210
0.0
220
0.0
230
1.0
 70
    24
 71
     3
 72
     8
 73
     4
 74
     0
 42
0.0000000001
 43
0.0000000001
 40
0.0
 40
0.0
 40
0.0
 40
0.0
 40
1.0
 40
1.0
 40
1.0
 40
1.0
 10
165.7248
 20
-1.926999999999999
 30
0.0
 10
165.7248
 20
-1.926999999999999
 30
0.0
 10
167.0894
 20
-1.926999999999999
 30
0.0
 10
167.0894
 20
-1.926999999999999
 30
0.0
  0
SPLINE
  5
EB
330
1F
100
AcDbEntity
  8
DEFPOINTS
370
    25
100
AcDbSpline
210
0.0
220
0.0
230
1.0
 70
    24
 71
     3
 72
     8
 73
     4
 74
     0
 42
0.0000000001
 43
0.0000000001
 40
0.0
 40
0.0
 40
0.0
 40
0.0
 40
1.0
 40
1.0
 40
1.0
 40
1.0
 10
167.7718
 20
-1.926999999999999
 30
0.0
 10
167.7718
 20
-1.926999999999999
 30
0.0
 10
169.1364
 20
-1.926999999999999
 30
0.0
 10
169.1364
 20
-1.926999999999999
 30
0.0
  0
SPLINE
  5
EC
330
1F
100
AcDbEntity
  8
DEFPOINTS
370
    25
100
AcDbSpline
210
0.0
220
0.0
230
1.0
 70
    24
 71
     3
 72
     8
 73
     4
 74
     0
 42
0.0000000001
 43
0.0000000001
 40
0.0
 40
0.0
 40
0.0
 40
0.0
 40
1.0
 40
1.0
 40
1.0
 40
1.0
 10
169.7915
 20
-1.926999999999999
 30
0.0
 10
169.7915
 20
-1.926999999999999
 30
0.0
 10
171.1561
 20
-1.926999999999999
 30
0.0
 10
171.1561
 20
-1.926999999999999
 30
0.0
  0
SPLINE
  5
ED
330
1F
100
AcDbEntity
  8
DEFPOINTS
370
    25
100
AcDbSpline
210
0.0
220
0.0
230
1.0
 70
    24
 71
     3
 72
     8
 73
     4
 74
     0
 42
0.0000000001
 43
0.0000000001
 40
0.0
 40
0.0
 40
0.0
 40
0.0
 40
1.0
 40
1.0
 40
1.0
 40
1.0
 10
171.8385
 20
-1.926999999999999
 30
0.0
 10
171.8385
 20
-1.926999999999999
 30
0.0
 10
173.2031
 20
-1.926999999999999
 30
0.0
 10
173.2031
 20
-1.926999999999999
 30
0.0
  0
SPLINE
  5
EE
330
1F
100
AcDbEntity
  8
DEFPOINTS
370
    25
100
AcDbSpline
210
0.0
220
0.0
230
1.0
 70
    24
 71
     3
 72
     8
 73
     4
 74
     0
 42
0.0000000001
 43
0.0000000001
 40
0.0
 40
0.0
 40
0.0
 40
0.0
 40
1.0
 40
1.0
 40
1.0
 40
1.0
 10
173.8855
 20
-1.926999999999999
 30
0.0
 10
173.8855
 20
-1.926999999999999
 30
0.0
 10
175.2229
 20
-1.926999999999999
 30
0.0
 10
175.2229
 20
-1.926999999999999
 30
0.0
  0
SPLINE
  5
EF
330
1F
100
AcDbEntity
  8
DEFPOINTS
370
    25
100
AcDbSpline
210
0.0
220
0.0
230
1.0
 70
    24
 71
     3
 72
     8
 73
     4
 74
     0
 42
0.0000000001
 43
0.0000000001
 40
0.0
 40
0.0
 40
0.0
 40
0.0
 40
1.0
 40
1.0
 40
1.0
 40
1.0
 10
175.9051
 20
-1.926999999999999
 30
0.0
 10
175.9051
 20
-1.926999999999999
 30
0.0
 10
177.2699
 20
-1.926999999999999
 30
0.0
 10
177.2699
 20
-1.926999999999999
 30
0.0
  0
SPLINE
  5
F0
330
1F
100
AcDbEntity
  8
DEFPOINTS
370
    25
100
AcDbSpline
210
0.0
220
0.0
230
1.0
 70
    24
 71
     3
 72
     8
 73
     4
 74
     0
 42
0.0000000001
 43
0.0000000001
 40
0.0
 40
0.0
 40
0.0
 40
0.0
 40
1.0
 40
1.0
 40
1.0
 40
1.0
 10
177.9521
 20
-1.926999999999999
 30
0.0
 10
177.9521
 20
-1.926999999999999
 30
0.0
 10
179.3169
 20
-1.926999999999999
 30
0.0
 10
179.3169
 20
-1.926999999999999
 30
0.0
  0
SPLINE
  5
F1
330
1F
100
AcDbEntity
  8
DEFPOINTS
370
    25
100
AcDbSpline
210
0.0
220
0.0
230
1.0
 70
    24
 71
     3
 72
     8
 73
     4
 74
     0
 42
0.0000000001
 43
0.0000000001
 40
0.0
 40
0.0
 40
0.0
 40
0.0
 40
1.0
 40
1.0
 40
1.0
 40
1.0
 10
179.9991
 20
-1.926999999999999
 30
0.0
 10
179.9991
 20
-1.926999999999999
 30
0.0
 10
181.3365
 20
-1.926999999999999
 30
0.0
 10
181.3365
 20
-1.926999999999999
 30
0.0
  0
SPLINE
  5
F2
330
1F
100
AcDbEntity
  8
DEFPOINTS
370
    25
100
AcDbSpline
210
0.0
220
0.0
230
1.0
 70
    24
 71
     3
 72
     8
 73
     4
 74
     0
 42
0.0000000001
 43
0.0000000001
 40
0.0
 40
0.0
 40
0.0
 40
0.0
 40
1.0
 40
1.0
 40
1.0
 40
1.0
 10
182.0189
 20
-1.926999999999999
 30
0.0
 10
182.0189
 20
-1.926999999999999
 30
0.0
 10
183.3835
 20
-1.926999999999999
 30
0.0
 10
183.3835
 20
-1.926999999999999
 30
0.0
  0
SPLINE
  5
F3
330
1F
100
AcDbEntity
  8
DEFPOINTS
370
    25
100
AcDbSpline
210
0.0
220
0.0
230
1.0
 70
    24
 71
     3
 72
     8
 73
     4
 74
     0
 42
0.0000000001
 43
0.0000000001
 40
0.0
 40
0.0
 40
0.0
 40
0.0
 40
1.0
 40
1.0
 40
1.0
 40
1.0
 10
184.0659
 20
-1.926999999999999
 30
0.0
 10
184.0659
 20
-1.926999999999999
 30
0.0
 10
185.4305
 20
-1.926999999999999
 30
0.0
 10
185.4305
 20
-1.926999999999999
 30
0.0
  0
SPLINE
  5
F4
330
1F
100
AcDbEntity
  8
DEFPOINTS
370
    25
100
AcDbSpline
210
0.0
220
0.0
230
1.0
 70
    24
 71
     3
 72
     8
 73
     4
 74
     0
 42
0.0000000001
 43
0.0000000001
 40
0.0
 40
0.0
 40
0.0
 40
0.0
 40
1.0
 40
1.0
 40
1.0
 40
1.0
 10
186.0856
 20
-1.926999999999999
 30
0.0
 10
186.0856
 20
-1.926999999999999
 30
0.0
 10
187.4502
 20
-1.926999999999999
 30
0.0
 10
187.4502
 20
-1.926999999999999
 30
0.0
  0
SPLINE
  5
F5
330
1F
100
AcDbEntity
  8
DEFPOINTS
370
    25
100
AcDbSpline
210
0.0
220
0.0
230
1.0
 70
    24
 71
     3
 72
     8
 73
     4
 74
     0
 42
0.0000000001
 43
0.0000000001
 40
0.0
 40
0.0
 40
0.0
 40
0.0
 40
1.0
 40
1.0
 40
1.0
 40
1.0
 10
188.1326
 20
-1.926999999999999
 30
0.0
 10
188.1326
 20
-1.926999999999999
 30
0.0
 10
189.4972
 20
-1.926999999999999
 30
0.0
 10
189.4972
 20
-1.926999999999999
 30
0.0
  0
SPLINE
  5
F6
330
1F
100
AcDbEntity
  8
DEFPOINTS
370
    25
100
AcDbSpline
210
0.0
220
0.0
230
1.0
 70
    24
 71
     3
 72
     8
 73
     4
 74
     0
 42
0.0000000001
 43
0.0000000001
 40
0.0
 40
0.0
 40
0.0
 40
0.0
 40
1.0
 40
1.0
 40
1.0
 40
1.0
 10
190.1796
 20
-1.926999999999999
 30
0.0
 10
190.1796
 20
-1.926999999999999
 30
0.0
 10
191.517
 20
-1.926999999999999
 30
0.0
 10
191.517
 20
-1.926999999999999
 30
0.0
  0
SPLINE
  5
F7
330
1F
100
AcDbEntity
  8
DEFPOINTS
370
    25
100
AcDbSpline
210
0.0
220
0.0
230
1.0
 70
    24
 71
     3
 72
     8
 73
     4
 74
     0
 42
0.0000000001
 43
0.0000000001
 40
0.0
 40
0.0
 40
0.0
 40
0.0
 40
1.0
 40
1.0
 40
1.0
 40
1.0
 10
192.1993
 20
-1.926999999999999
 30
0.0
 10
192.1993
 20
-1.926999999999999
 30
0.0
 10
193.564
 20
-1.926999999999999
 30
0.0
 10
193.564
 20
-1.926999999999999
 30
0.0
  0
SPLINE
  5
F8
330
1F
100
AcDbEntity
  8
DEFPOINTS
370
    25
100
AcDbSpline
210
0.0
220
0.0
230
1.0
 70
    24
 71
     3
 72
     8
 73
     4
 74
     0
 42
0.0000000001
 43
0.0000000001
 40
0.0
 40
0.0
 40
0.0
 40
0.0
 40
1.0
 40
1.0
 40
1.0
 40
1.0
 10
194.2463
 20
-1.926999999999999
 30
0.0
 10
194.2463
 20
-1.926999999999999
 30
0.0
 10
195.611
 20
-1.926999999999999
 30
0.0
 10
195.611
 20
-1.926999999999999
 30
0.0
  0
SPLINE
  5
F9
330
1F
100
AcDbEntity
  8
DEFPOINTS
370
    25
100
AcDbSpline
210
0.0
220
0.0
230
1.0
 70
    24
 71
     3
 72
     8
 73
     4
 74
     0
 42
0.0000000001
 43
0.0000000001
 40
0.0
 40
0.0
 40
0.0
 40
0.0
 40
1.0
 40
1.0
 40
1.0
 40
1.0
 10
196.2661
 20
-1.926999999999999
 30
0.0
 10
196.2661
 20
-1.926999999999999
 30
0.0
 10
197.6307
 20
-1.926999999999999
 30
0.0
 10
197.6307
 20
-1.926999999999999
 30
0.0
  0
SPLINE
  5
FA
330
1F
100
AcDbEntity
  8
DEFPOINTS
370
    25
100
AcDbSpline
210
0.0
220
0.0
230
1.0
 70
    24
 71
     3
 72
     8
 73
     4
 74
     0
 42
0.0000000001
 43
0.0000000001
 40
0.0
 40
0.0
 40
0.0
 40
0.0
 40
1.0
 40
1.0
 40
1.0
 40
1.0
 10
198.3131
 20
-1.926999999999999
 30
0.0
 10
198.3131
 20
-1.926999999999999
 30
0.0
 10
199.6777
 20
-1.926999999999999
 30
0.0
 10
199.6777
 20
-1.926999999999999
 30
0.0
  0
SPLINE
  5
FB
330
1F
100
AcDbEntity
  8
DEFPOINTS
370
    25
100
AcDbSpline
210
0.0
220
0.0
230
1.0
 70
    24
 71
     3
 72
     8
 73
     4
 74
     0
 42
0.0000000001
 43
0.0000000001
 40
0.0
 40
0.0
 40
0.0
 40
0.0
 40
1.0
 40
1.0
 40
1.0
 40
1.0
 10
200.3601
 20
-1.926999999999999
 30
0.0
 10
200.3601
 20
-1.926999999999999
 30
0.0
 10
201.6974
 20
-1.926999999999999
 30
0.0
 10
201.6974
 20
-1.926999999999999
 30
0.0
  0
SPLINE
  5
FC
330
1F
100
AcDbEntity
  8
DEFPOINTS
370
    25
100
AcDbSpline
210
0.0
220
0.0
230
1.0
 70
    24
 71
     3
 72
     8
 73
     4
 74
     0
 42
0.0000000001
 43
0.0000000001
 40
0.0
 40
0.0
 40
0.0
 40
0.0
 40
1.0
 40
1.0
 40
1.0
 40
1.0
 10
202.3797
 20
-1.926999999999999
 30
0.0
 10
202.3797
 20
-1.926999999999999
 30
0.0
 10
203.7444
 20
-1.926999999999999
 30
0.0
 10
203.7444
 20
-1.926999999999999
 30
0.0
  0
SPLINE
  5
FD
330
1F
100
AcDbEntity
  8
DEFPOINTS
370
    25
100
AcDbSpline
210
0.0
220
0.0
230
1.0
 70
    24
 71
     3
 72
     8
 73
     4
 74
     0
 42
0.0000000001
 43
0.0000000001
 40
0.0
 40
0.0
 40
0.0
 40
0.0
 40
1.0
 40
1.0
 40
1.0
 40
1.0
 10
204.4267
 20
-1.926999999999999
 30
0.0
 10
204.4267
 20
-1.926999999999999
 30
0.0
 10
205.7914
 20
-1.926999999999999
 30
0.0
 10
205.7914
 20
-1.926999999999999
 30
0.0
  0
SPLINE
  5
FE
330
1F
100
AcDbEntity
  8
DEFPOINTS
370
    25
100
AcDbSpline
210
0.0
220
0.0
230
1.0
 70
    24
 71
     3
 72
     8
 73
     4
 74
     0
 42
0.0000000001
 43
0.0000000001
 40
0.0
 40
0.0
 40
0.0
 40
0.0
 40
1.0
 40
1.0
 40
1.0
 40
1.0
 10
206.4737
 20
-1.926999999999999
 30
0.0
 10
206.4737
 20
-1.926999999999999
 30
0.0
 10
207.8112
 20
-1.926999999999999
 30
0.0
 10
207.8112
 20
-1.926999999999999
 30
0.0
  0
SPLINE
  5
FF
330
1F
100
AcDbEntity
  8
DEFPOINTS
370
    25
100
AcDbSpline
210
0.0
220
0.0
230
1.0
 70
    24
 71
     3
 72
     8
 73
     4
 74
     0
 42
0.0000000001
 43
0.0000000001
 40
0.0
 40
0.0
 40
0.0
 40
0.0
 40
1.0
 40
1.0
 40
1.0
 40
1.0
 10
208.4934
 20
-1.926999999999999
 30
0.0
 10
208.4934
 20
-1.926999999999999
 30
0.0
 10
209.8582
 20
-1.926999999999999
 30
0.0
 10
209.8582
 20
-1.926999999999999
 30
0.0
  0
SPLINE
  5
100
330
1F
100
AcDbEntity
  8
DEFPOINTS
370
    25
100
AcDbSpline
210
0.0
220
0.0
230
1.0
 70
    24
 71
     3
 72
     8
 73
     4
 74
     0
 42
0.0000000001
 43
0.0000000001
 40
0.0
 40
0.0
 40
0.0
 40
0.0
 40
1.0
 40
1.0
 40
1.0
 40
1.0
 10
210.5404
 20
-1.926999999999999
 30
0.0
 10
210.5404
 20
-1.926999999999999
 30
0.0
 10
211.9052
 20
-1.926999999999999
 30
0.0
 10
211.9052
 20
-1.926999999999999
 30
0.0
  0
SPLINE
  5
101
330
1F
100
AcDbEntity
  8
DEFPOINTS
370
    25
100
AcDbSpline
210
0.0
220
0.0
230
1.0
 70
    24
 71
     3
 72
     8
 73
     4
 74
     0
 42
0.0000000001
 43
0.0000000001
 40
0.0
 40
0.0
 40
0.0
 40
0.0
 40
1.0
 40
1.0
 40
1.0
 40
1.0
 10
212.5602
 20
-1.926999999999999
 30
0.0
 10
212.5602
 20
-1.926999999999999
 30
0.0
 10
213.9248
 20
-1.926999999999999
 30
0.0
 10
213.9248
 20
-1.926999999999999
 30
0.0
  0
SPLINE
  5
102
330
1F
100
AcDbEntity
  8
DEFPOINTS
370
    25
100
AcDbSpline
210
0.0
220
0.0
230
1.0
 70
    24
 71
     3
 72
     8
 73
     4
 74
     0
 42
0.0000000001
 43
0.0000000001
 40
0.0
 40
0.0
 40
0.0
 40
0.0
 40
1.0
 40
1.0
 40
1.0
 40
1.0
 10
214.6072
 20
-1.926999999999999
 30
0.0
 10
214.6072
 20
-1.926999999999999
 30
0.0
 10
215.9718
 20
-1.926999999999999
 30
0.0
 10
215.9718
 20
-1.926999999999999
 30
0.0
  0
SPLINE
  5
103
330
1F
100
AcDbEntity
  8
DEFPOINTS
370
    25
100
AcDbSpline
210
0.0
220
0.0
230
1.0
 70
    24
 71
     3
 72
     8
 73
     4
 74
     0
 42
0.0000000001
 43
0.0000000001
 40
0.0
 40
0.0
 40
0.0
 40
0.0
 40
1.0
 40
1.0
 40
1.0
 40
1.0
 10
216.6542
 20
-1.926999999999999
 30
0.0
 10
216.6542
 20
-1.926999999999999
 30
0.0
 10
217.9915
 20
-1.926999999999999
 30
0.0
 10
217.9915
 20
-1.926999999999999
 30
0.0
  0
SPLINE
  5
104
330
1F
100
AcDbEntity
  8
DEFPOINTS
370
    25
100
AcDbSpline
210
0.0
220
0.0
230
1.0
 70
    24
 71
     3
 72
     8
 73
     4
 74
     0
 42
0.0000000001
 43
0.0000000001
 40
0.0
 40
0.0
 40
0.0
 40
0.0
 40
1.0
 40
1.0
 40
1.0
 40
1.0
 10
218.6739
 20
-1.926999999999999
 30
0.0
 10
218.6739
 20
-1.926999999999999
 30
0.0
 10
220.0385
 20
-1.926999999999999
 30
0.0
 10
220.0385
 20
-1.926999999999999
 30
0.0
  0
SPLINE
  5
105
330
1F
100
AcDbEntity
  8
DEFPOINTS
370
    25
100
AcDbSpline
210
0.0
220
0.0
230
1.0
 70
    24
 71
     3
 72
     8
 73
     4
 74
     0
 42
0.0000000001
 43
0.0000000001
 40
0.0
 40
0.0
 40
0.0
 40
0.0
 40
1.0
 40
1.0
 40
1.0
 40
1.0
 10
220.7209
 20
-1.926999999999999
 30
0.0
 10
220.7209
 20
-1.926999999999999
 30
0.0
 10
222.0855
 20
-1.926999999999999
 30
0.0
 10
222.0855
 20
-1.926999999999999
 30
0.0
  0
SPLINE
  5
106
330
1F
100
AcDbEntity
  8
DEFPOINTS
370
    25
100
AcDbSpline
210
0.0
220
0.0
230
1.0
 70
    24
 71
     3
 72
     8
 73
     4
 74
     0
 42
0.0000000001
 43
0.0000000001
 40
0.0
 40
0.0
 40
0.0
 40
0.0
 40
1.0
 40
1.0
 40
1.0
 40
1.0
 10
222.7405
 20
-1.926999999999999
 30
0.0
 10
222.7405
 20
-1.926999999999999
 30
0.0
 10
224.1053
 20
-1.926999999999999
 30
0.0
 10
224.1053
 20
-1.926999999999999
 30
0.0
  0
SPLINE
  5
107
330
1F
100
AcDbEntity
  8
DEFPOINTS
370
    25
100
AcDbSpline
210
0.0
220
0.0
230
1.0
 70
    24
 71
     3
 72
     8
 73
     4
 74
     0
 42
0.0000000001
 43
0.0000000001
 40
0.0
 40
0.0
 40
0.0
 40
0.0
 40
1.0
 40
1.0
 40
1.0
 40
1.0
 10
224.7875
 20
-1.926999999999999
 30
0.0
 10
224.7875
 20
-1.926999999999999
 30
0.0
 10
226.1523
 20
-1.926999999999999
 30
0.0
 10
226.1523
 20
-1.926999999999999
 30
0.0
  0
SPLINE
  5
108
330
1F
100
AcDbEntity
  8
DEFPOINTS
370
    25
100
AcDbSpline
210
0.0
220
0.0
230
1.0
 70
    24
 71
     3
 72
     8
 73
     4
 74
     0
 42
0.0000000001
 43
0.0000000001
 40
0.0
 40
0.0
 40
0.0
 40
0.0
 40
1.0
 40
1.0
 40
1.0
 40
1.0
 10
226.8345
 20
-1.926999999999999
 30
0.0
 10
226.8345
 20
-1.926999999999999
 30
0.0
 10
228.172
 20
-1.926999999999999
 30
0.0
 10
228.172
 20
-1.926999999999999
 30
0.0
  0
SPLINE
  5
109
330
1F
100
AcDbEntity
  8
DEFPOINTS
370
    25
100
AcDbSpline
210
0.0
220
0.0
230
1.0
 70
    24
 71
     3
 72
     8
 73
     4
 74
     0
 42
0.0000000001
 43
0.0000000001
 40
0.0
 40
0.0
 40
0.0
 40
0.0
 40
1.0
 40
1.0
 40
1.0
 40
1.0
 10
228.8543
 20
-1.926999999999999
 30
0.0
 10
228.8543
 20
-1.926999999999999
 30
0.0
 10
230.219
 20
-1.926999999999999
 30
0.0
 10
230.219
 20
-1.926999999999999
 30
0.0
  0
SPLINE
  5
10A
330
1F
100
AcDbEntity
  8
DEFPOINTS
370
    25
100
AcDbSpline
210
0.0
220
0.0
230
1.0
 70
    24
 71
     3
 72
     8
 73
     4
 74
     0
 42
0.0000000001
 43
0.0000000001
 40
0.0
 40
0.0
 40
0.0
 40
0.0
 40
1.0
 40
1.0
 40
1.0
 40
1.0
 10
230.9013
 20
-1.926999999999999
 30
0.0
 10
230.9013
 20
-1.926999999999999
 30
0.0
 10
232.266
 20
-1.926999999999999
 30
0.0
 10
232.266
 20
-1.926999999999999
 30
0.0
  0
SPLINE
  5
10B
330
1F
100
AcDbEntity
  8
DEFPOINTS
370
    25
100
AcDbSpline
210
0.0
220
0.0
230
1.0
 70
    24
 71
     3
 72
     8
 73
     4
 74
     0
 42
0.0000000001
 43
0.0000000001
 40
0.0
 40
0.0
 40
0.0
 40
0.0
 40
1.0
 40
1.0
 40
1.0
 40
1.0
 10
232.9483
 20
-1.926999999999999
 30
0.0
 10
232.9483
 20
-1.926999999999999
 30
0.0
 10
234.2856
 20
-1.926999999999999
 30
0.0
 10
234.2856
 20
-1.926999999999999
 30
0.0
  0
SPLINE
  5
10C
330
1F
100
AcDbEntity
  8
DEFPOINTS
370
    25
100
AcDbSpline
210
0.0
220
0.0
230
1.0
 70
    24
 71
     3
 72
     8
 73
     4
 74
     0
 42
0.0000000001
 43
0.0000000001
 40
0.0
 40
0.0
 40
0.0
 40
0.0
 40
1.0
 40
1.0
 40
1.0
 40
1.0
 10
234.968
 20
-1.926999999999999
 30
0.0
 10
234.968
 20
-1.926999999999999
 30
0.0
 10
236.3326
 20
-1.926999999999999
 30
0.0
 10
236.3326
 20
-1.926999999999999
 30
0.0
  0
SPLINE
  5
10D
330
1F
100
AcDbEntity
  8
DEFPOINTS
370
    25
100
AcDbSpline
210
0.0
220
0.0
230
1.0
 70
    24
 71
     3
 72
     8
 73
     4
 74
     0
 42
0.0000000001
 43
0.0000000001
 40
0.0
 40
0.0
 40
0.0
 40
0.0
 40
1.0
 40
1.0
 40
1.0
 40
1.0
 10
237.015
 20
-1.926999999999999
 30
0.0
 10
237.015
 20
-1.926999999999999
 30
0.0
 10
238.3796
 20
-1.926999999999999
 30
0.0
 10
238.3796
 20
-1.926999999999999
 30
0.0
  0
SPLINE
  5
10E
330
1F
100
AcDbEntity
  8
DEFPOINTS
370
    25
100
AcDbSpline
210
0.0
220
0.0
230
1.0
 70
    24
 71
     3
 72
     8
 73
     4
 74
     0
 42
0.0000000001
 43
0.0000000001
 40
0.0
 40
0.0
 40
0.0
 40
0.0
 40
1.0
 40
1.0
 40
1.0
 40
1.0
 10
239.0347
 20
-1.926999999999999
 30
0.0
 10
239.0347
 20
-1.926999999999999
 30
0.0
 10
240.3994
 20
-1.926999999999999
 30
0.0
 10
240.3994
 20
-1.926999999999999
 30
0.0
  0
SPLINE
  5
10F
330
1F
100
AcDbEntity
  8
DEFPOINTS
370
    25
100
AcDbSpline
210
0.0
220
0.0
230
1.0
 70
    24
 71
     3
 72
     8
 73
     4
 74
     0
 42
0.0000000001
 43
0.0000000001
 40
0.0
 40
0.0
 40
0.0
 40
0.0
 40
1.0
 40
1.0
 40
1.0
 40
1.0
 10
241.0817
 20
-1.926999999999999
 30
0.0
 10
241.0817
 20
-1.926999999999999
 30
0.0
 10
242.4464
 20
-1.926999999999999
 30
0.0
 10
242.4464
 20
-1.926999999999999
 30
0.0
  0
SPLINE
  5
110
330
1F
100
AcDbEntity
  8
DEFPOINTS
370
    25
100
AcDbSpline
210
0.0
220
0.0
230
1.0
 70
    24
 71
     3
 72
     8
 73
     4
 74
     0
 42
0.0000000001
 43
0.0000000001
 40
0.0
 40
0.0
 40
0.0
 40
0.0
 40
1.0
 40
1.0
 40
1.0
 40
1.0
 10
243.1287
 20
-1.926999999999999
 30
0.0
 10
243.1287
 20
-1.926999999999999
 30
0.0
 10
244.4661
 20
-1.926999999999999
 30
0.0
 10
244.4661
 20
-1.926999999999999
 30
0.0
  0
SPLINE
  5
111
330
1F
100
AcDbEntity
  8
DEFPOINTS
370
    25
100
AcDbSpline
210
0.0
220
0.0
230
1.0
 70
    24
 71
     3
 72
     8
 73
     4
 74
     0
 42
0.0000000001
 43
0.0000000001
 40
0.0
 40
0.0
 40
0.0
 40
0.0
 40
1.0
 40
1.0
 40
1.0
 40
1.0
 10
245.1485
 20
-1.926999999999999
 30
0.0
 10
245.1485
 20
-1.926999999999999
 30
0.0
 10
246.5131
 20
-1.926999999999999
 30
0.0
 10
246.5131
 20
-1.926999999999999
 30
0.0
  0
SPLINE
  5
112
330
1F
100
AcDbEntity
  8
DEFPOINTS
370
    25
100
AcDbSpline
210
0.0
220
0.0
230
1.0
 70
    24
 71
     3
 72
     8
 73
     4
 74
     0
 42
0.0000000001
 43
0.0000000001
 40
0.0
 40
0.0
 40
0.0
 40
0.0
 40
1.0
 40
1.0
 40
1.0
 40
1.0
 10
247.1955
 20
-1.926999999999999
 30
0.0
 10
247.1955
 20
-1.926999999999999
 30
0.0
 10
248.5601
 20
-1.926999999999999
 30
0.0
 10
248.5601
 20
-1.926999999999999
 30
0.0
  0
SPLINE
  5
113
330
1F
100
AcDbEntity
  8
DEFPOINTS
370
    25
100
AcDbSpline
210
0.0
220
0.0
230
1.0
 70
    24
 71
     3
 72
     8
 73
     4
 74
     0
 42
0.0000000001
 43
0.0000000001
 40
0.0
 40
0.0
 40
0.0
 40
0.0
 40
1.0
 40
1.0
 40
1.0
 40
1.0
 10
249.2425
 20
-1.926999999999999
 30
0.0
 10
249.2425
 20
-1.926999999999999
 30
0.0
 10
250.5798
 20
-1.926999999999999
 30
0.0
 10
250.5798
 20
-1.926999999999999
 30
0.0
  0
SPLINE
  5
114
330
1F
100
AcDbEntity
  8
DEFPOINTS
370
    25
100
AcDbSpline
210
0.0
220
0.0
230
1.0
 70
    24
 71
     3
 72
     8
 73
     4
 74
     0
 42
0.0000000001
 43
0.0000000001
 40
0.0
 40
0.0
 40
0.0
 40
0.0
 40
1.0
 40
1.0
 40
1.0
 40
1.0
 10
251.2621
 20
-1.926999999999999
 30
0.0
 10
251.2621
 20
-1.926999999999999
 30
0.0
 10
252.6268
 20
-1.926999999999999
 30
0.0
 10
252.6268
 20
-1.926999999999999
 30
0.0
  0
SPLINE
  5
115
330
1F
100
AcDbEntity
  8
DEFPOINTS
370
    25
100
AcDbSpline
210
0.0
220
0.0
230
1.0
 70
    24
 71
     3
 72
     8
 73
     4
 74
     0
 42
0.0000000001
 43
0.0000000001
 40
0.0
 40
0.0
 40
0.0
 40
0.0
 40
1.0
 40
1.0
 40
1.0
 40
1.0
 10
253.3092
 20
-1.926999999999999
 30
0.0
 10
253.3092
 20
-1.926999999999999
 30
0.0
 10
254.6738
 20
-1.926999999999999
 30
0.0
 10
254.6738
 20
-1.926999999999999
 30
0.0
  0
SPLINE
  5
116
330
1F
100
AcDbEntity
  8
DEFPOINTS
370
    25
100
AcDbSpline
210
0.0
220
0.0
230
1.0
 70
    24
 71
     3
 72
     8
 73
     4
 74
     0
 42
0.0000000001
 43
0.0000000001
 40
0.0
 40
0.0
 40
0.0
 40
0.0
 40
1.0
 40
1.0
 40
1.0
 40
1.0
 10
255.3288
 20
-1.926999999999999
 30
0.0
 10
255.3288
 20
-1.926999999999999
 30
0.0
 10
256.6936
 20
-1.926999999999999
 30
0.0
 10
256.6936
 20
-1.926999999999999
 30
0.0
  0
SPLINE
  5
117
330
1F
100
AcDbEntity
  8
DEFPOINTS
370
    25
100
AcDbSpline
210
0.0
220
0.0
230
1.0
 70
    24
 71
     3
 72
     8
 73
     4
 74
     0
 42
0.0000000001
 43
0.0000000001
 40
0.0
 40
0.0
 40
0.0
 40
0.0
 40
1.0
 40
1.0
 40
1.0
 40
1.0
 10
257.3758
 20
-1.926999999999999
 30
0.0
 10
257.3758
 20
-1.926999999999999
 30
0.0
 10
258.7406
 20
-1.926999999999999
 30
0.0
 10
258.7406
 20
-1.926999999999999
 30
0.0
  0
SPLINE
  5
118
330
1F
100
AcDbEntity
  8
DEFPOINTS
370
    25
100
AcDbSpline
210
0.0
220
0.0
230
1.0
 70
    24
 71
     3
 72
     8
 73
     4
 74
     0
 42
0.0000000001
 43
0.0000000001
 40
0.0
 40
0.0
 40
0.0
 40
0.0
 40
1.0
 40
1.0
 40
1.0
 40
1.0
 10
259.4228
 20
-1.926999999999999
 30
0.0
 10
259.4228
 20
-1.926999999999999
 30
0.0
 10
260.7602
 20
-1.926999999999999
 30
0.0
 10
260.7602
 20
-1.926999999999999
 30
0.0
  0
SPLINE
  5
119
330
1F
100
AcDbEntity
  8
DEFPOINTS
370
    25
100
AcDbSpline
210
0.0
220
0.0
230
1.0
 70
    24
 71
     3
 72
     8
 73
     4
 74
     0
 42
0.0000000001
 43
0.0000000001
 40
0.0
 40
0.0
 40
0.0
 40
0.0
 40
1.0
 40
1.0
 40
1.0
 40
1.0
 10
261.4426
 20
-1.926999999999999
 30
0.0
 10
261.4426
 20
-1.926999999999999
 30
0.0
 10
262.8072
 20
-1.926999999999999
 30
0.0
 10
262.8072
 20
-1.926999999999999
 30
0.0
  0
SPLINE
  5
11A
330
1F
100
AcDbEntity
  8
DEFPOINTS
370
    25
100
AcDbSpline
210
0.0
220
0.0
230
1.0
 70
    24
 71
     3
 72
     8
 73
     4
 74
     0
 42
0.0000000001
 43
0.0000000001
 40
0.0
 40
0.0
 40
0.0
 40
0.0
 40
1.0
 40
1.0
 40
1.0
 40
1.0
 10
263.4896
 20
-1.926999999999999
 30
0.0
 10
263.4896
 20
-1.926999999999999
 30
0.0
 10
264.8542
 20
-1.926999999999999
 30
0.0
 10
264.8542
 20
-1.926999999999999
 30
0.0
  0
SPLINE
  5
11B
330
1F
100
AcDbEntity
  8
DEFPOINTS
370
    25
100
AcDbSpline
210
0.0
220
0.0
230
1.0
 70
    24
 71
     3
 72
     8
 73
     4
 74
     0
 42
0.0000000001
 43
0.0000000001
 40
0.0
 40
0.0
 40
0.0
 40
0.0
 40
1.0
 40
1.0
 40
1.0
 40
1.0
 10
265.5093
 20
-1.926999999999999
 30
0.0
 10
265.5093
 20
-1.926999999999999
 30
0.0
 10
266.8739
 20
-1.926999999999999
 30
0.0
 10
266.8739
 20
-1.926999999999999
 30
0.0
  0
SPLINE
  5
11C
330
1F
100
AcDbEntity
  8
DEFPOINTS
370
    25
100
AcDbSpline
210
0.0
220
0.0
230
1.0
 70
    24
 71
     3
 72
     8
 73
     4
 74
     0
 42
0.0000000001
 43
0.0000000001
 40
0.0
 40
0.0
 40
0.0
 40
0.0
 40
1.0
 40
1.0
 40
1.0
 40
1.0
 10
267.5563
 20
-1.926999999999999
 30
0.0
 10
267.5563
 20
-1.926999999999999
 30
0.0
 10
268.9209
 20
-1.926999999999999
 30
0.0
 10
268.9209
 20
-1.926999999999999
 30
0.0
  0
SPLINE
  5
11D
330
1F
100
AcDbEntity
  8
DEFPOINTS
370
    25
100
AcDbSpline
210
0.0
220
0.0
230
1.0
 70
    24
 71
     3
 72
     8
 73
     4
 74
     0
 42
0.0000000001
 43
0.0000000001
 40
0.0
 40
0.0
 40
0.0
 40
0.0
 40
1.0
 40
1.0
 40
1.0
 40
1.0
 10
269.6033
 20
-1.926999999999999
 30
0.0
 10
269.6033
 20
-1.926999999999999
 30
0.0
 10
270.9407
 20
-1.926999999999999
 30
0.0
 10
270.9407
 20
-1.926999999999999
 30
0.0
  0
SPLINE
  5
11E
330
1F
100
AcDbEntity
  8
DEFPOINTS
370
    25
100
AcDbSpline
210
0.0
220
0.0
230
1.0
 70
    24
 71
     3
 72
     8
 73
     4
 74
     0
 42
0.0000000001
 43
0.0000000001
 40
0.0
 40
0.0
 40
0.0
 40
0.0
 40
1.0
 40
1.0
 40
1.0
 40
1.0
 10
271.623
 20
-1.926999999999999
 30
0.0
 10
271.623
 20
-1.926999999999999
 30
0.0
 10
272.9877
 20
-1.926999999999999
 30
0.0
 10
272.9877
 20
-1.926999999999999
 30
0.0
  0
SPLINE
  5
11F
330
1F
100
AcDbEntity
  8
DEFPOINTS
370
    25
100
AcDbSpline
210
0.0
220
0.0
230
1.0
 70
    24
 71
     3
 72
     8
 73
     4
 74
     0
 42
0.0000000001
 43
0.0000000001
 40
0.0
 40
0.0
 40
0.0
 40
0.0
 40
1.0
 40
1.0
 40
1.0
 40
1.0
 10
273.67
 20
-1.926999999999999
 30
0.0
 10
273.67
 20
-1.926999999999999
 30
0.0
 10
275.0347
 20
-1.926999999999999
 30
0.0
 10
275.0347
 20
-1.926999999999999
 30
0.0
  0
SPLINE
  5
120
330
1F
100
AcDbEntity
  8
DEFPOINTS
370
    25
100
AcDbSpline
210
0.0
220
0.0
230
1.0
 70
    24
 71
     3
 72
     8
 73
     4
 74
     0
 42
0.0000000001
 43
0.0000000001
 40
0.0
 40
0.0
 40
0.0
 40
0.0
 40
1.0
 40
1.0
 40
1.0
 40
1.0
 10
275.717
 20
-1.926999999999999
 30
0.0
 10
275.717
 20
-1.926999999999999
 30
0.0
 10
277.0544
 20
-1.926999999999999
 30
0.0
 10
277.0544
 20
-1.926999999999999
 30
0.0
  0
SPLINE
  5
121
330
1F
100
AcDbEntity
  8
DEFPOINTS
370
    25
100
AcDbSpline
210
0.0
220
0.0
230
1.0
 70
    24
 71
     3
 72
     8
 73
     4
 74
     0
 42
0.0000000001
 43
0.0000000001
 40
0.0
 40
0.0
 40
0.0
 40
0.0
 40
1.0
 40
1.0
 40
1.0
 40
1.0
 10
277.7368
 20
-1.926999999999999
 30
0.0
 10
277.7368
 20
-1.926999999999999
 30
0.0
 10
279.1014
 20
-1.926999999999999
 30
0.0
 10
279.1014
 20
-1.926999999999999
 30
0.0
  0
SPLINE
  5
122
330
1F
100
AcDbEntity
  8
DEFPOINTS
370
    25
100
AcDbSpline
210
0.0
220
0.0
230
1.0
 70
    24
 71
     3
 72
     8
 73
     4
 74
     0
 42
0.0000000001
 43
0.0000000001
 40
0.0
 40
0.0
 40
0.0
 40
0.0
 40
1.0
 40
1.0
 40
1.0
 40
1.0
 10
279.7838
 20
-1.926999999999999
 30
0.0
 10
279.7838
 20
-1.926999999999999
 30
0.0
 10
281.1484
 20
-1.926999999999999
 30
0.0
 10
281.1484
 20
-1.926999999999999
 30
0.0
  0
SPLINE
  5
123
330
1F
100
AcDbEntity
  8
DEFPOINTS
370
    25
100
AcDbSpline
210
0.0
220
0.0
230
1.0
 70
    24
 71
     3
 72
     8
 73
     4
 74
     0
 42
0.0000000001
 43
0.0000000001
 40
0.0
 40
0.0
 40
0.0
 40
0.0
 40
1.0
 40
1.0
 40
1.0
 40
1.0
 10
281.8034
 20
-1.926999999999999
 30
0.0
 10
281.8034
 20
-1.926999999999999
 30
0.0
 10
283.1681
 20
-1.926999999999999
 30
0.0
 10
283.1681
 20
-1.926999999999999
 30
0.0
  0
SPLINE
  5
124
330
1F
100
AcDbEntity
  8
DEFPOINTS
370
    25
100
AcDbSpline
210
0.0
220
0.0
230
1.0
 70
    24
 71
     3
 72
     8
 73
     4
 74
     0
 42
0.0000000001
 43
0.0000000001
 40
0.0
 40
0.0
 40
0.0
 40
0.0
 40
1.0
 40
1.0
 40
1.0
 40
1.0
 10
283.8504
 20
-1.926999999999999
 30
0.0
 10
283.8504
 20
-1.926999999999999
 30
0.0
 10
285.2151
 20
-1.926999999999999
 30
0.0
 10
285.2151
 20
-1.926999999999999
 30
0.0
  0
SPLINE
  5
125
330
1F
100
AcDbEntity
  8
DEFPOINTS
370
    25
100
AcDbSpline
210
0.0
220
0.0
230
1.0
 70
    24
 71
     3
 72
     8
 73
     4
 74
     0
 42
0.0000000001
 43
0.0000000001
 40
0.0
 40
0.0
 40
0.0
 40
0.0
 40
1.0
 40
1.0
 40
1.0
 40
1.0
 10
285.8974
 20
-1.926999999999999
 30
0.0
 10
285.8974
 20
-1.926999999999999
 30
0.0
 10
287.3439
 20
-1.926999999999999
 30
0.0
 10
287.3439
 20
-1.926999999999999
 30
0.0
  0
SPLINE
  5
126
330
1F
100
AcDbEntity
  8
DEFPOINTS
370
    25
100
AcDbSpline
210
0.0
220
0.0
230
1.0
 70
    24
 71
     3
 72
     8
 73
     4
 74
     0
 42
0.0000000001
 43
0.0000000001
 40
0.0
 40
0.0
 40
0.0
 40
0.0
 40
1.0
 40
1.0
 40
1.0
 40
1.0
 10
155.7354
 20
-80.7566
 30
0.0
 10
155.7354
 20
-80.7566
 30
0.0
 10
155.7354
 20
-3.4874
 30
0.0
 10
155.7354
 20
-3.4874
 30
0.0
  0
SPLINE
  5
127
330
1F
100
AcDbEntity
  8
DEFPOINTS
370
    25
100
AcDbSpline
210
0.0
220
0.0
230
1.0
 70
    24
 71
     3
 72
     8
 73
     4
 74
     0
 42
0.0000000001
 43
0.0000000001
 40
0.0
 40
0.0
 40
0.0
 40
0.0
 40
1.0
 40
1.0
 40
1.0
 40
1.0
 10
158.4375
 20
-0.8867
 30
0.0
 10
158.4375
 20
-0.8867
 30
0.0
 10
288.4357
 20
-0.8867
 30
0.0
 10
288.4357
 20
-0.8867
 30
0.0
  0
SPLINE
  5
128
330
1F
100
AcDbEntity
  8
DEFPOINTS
370
    25
100
AcDbSpline
210
0.0
220
0.0
230
1.0
 70
    24
 71
     3
 72
     8
 73
     4
 74
     0
 42
0.0000000001
 43
0.0000000001
 40
0.0
 40
0.0
 40
0.0
 40
0.0
 40
1.0
 40
1.0
 40
1.0
 40
1.0
 10
291.1378
 20
-3.4874
 30
0.0
 10
291.1378
 20
-3.4874
 30
0.0
 10
291.1378
 20
-80.7566
 30
0.0
 10
291.1378
 20
-80.7566
 30
0.0
  0
SPLINE
  5
129
330
1F
100
AcDbEntity
  8
DEFPOINTS
370
    25
100
AcDbSpline
210
0.0
220
0.0
230
1.0
 70
    24
 71
     3
 72
     8
 73
     4
 74
     0
 42
0.0000000001
 43
0.0000000001
 40
0.0
 40
0.0
 40
0.0
 40
0.0
 40
1.0
 40
1.0
 40
1.0
 40
1.0
 10
156.2812
 20
-80.7566
 30
0.0
 10
156.2812
 20
-80.7566
 30
0.0
 10
156.2812
 20
-79.5862
 30
0.0
 10
156.2812
 20
-79.5862
 30
0.0
  0
SPLINE
  5
12A
330
1F
100
AcDbEntity
  8
DEFPOINTS
370
    25
100
AcDbSpline
210
0.0
220
0.0
230
1.0
 70
    24
 71
     3
 72
     8
 73
     4
 74
     0
 42
0.0000000001
 43
0.0000000001
 40
0.0
 40
0.0
 40
0.0
 40
0.0
 40
1.0
 40
1.0
 40
1.0
 40
1.0
 10
156.2812
 20
-78.93600000000001
 30
0.0
 10
156.2812
 20
-78.93600000000001
 30
0.0
 10
156.2812
 20
-77.6357
 30
0.0
 10
156.2812
 20
-77.6357
 30
0.0
  0
SPLINE
  5
12B
330
1F
100
AcDbEntity
  8
DEFPOINTS
370
    25
100
AcDbSpline
210
0.0
220
0.0
230
1.0
 70
    24
 71
     3
 72
     8
 73
     4
 74
     0
 42
0.0000000001
 43
0.0000000001
 40
0.0
 40
0.0
 40
0.0
 40
0.0
 40
1.0
 40
1.0
 40
1.0
 40
1.0
 10
156.2812
 20
-76.9854
 30
0.0
 10
156.2812
 20
-76.9854
 30
0.0
 10
156.2812
 20
-75.6851
 30
0.0
 10
156.2812
 20
-75.6851
 30
0.0
  0
SPLINE
  5
12C
330
1F
100
AcDbEntity
  8
DEFPOINTS
370
    25
100
AcDbSpline
210
0.0
220
0.0
230
1.0
 70
    24
 71
     3
 72
     8
 73
     4
 74
     0
 42
0.0000000001
 43
0.0000000001
 40
0.0
 40
0.0
 40
0.0
 40
0.0
 40
1.0
 40
1.0
 40
1.0
 40
1.0
 10
156.2812
 20
-75.0609
 30
0.0
 10
156.2812
 20
-75.0609
 30
0.0
 10
156.2812
 20
-73.76049999999999
 30
0.0
 10
156.2812
 20
-73.76049999999999
 30
0.0
  0
SPLINE
  5
12D
330
1F
100
AcDbEntity
  8
DEFPOINTS
370
    25
100
AcDbSpline
210
0.0
220
0.0
230
1.0
 70
    24
 71
     3
 72
     8
 73
     4
 74
     0
 42
0.0000000001
 43
0.0000000001
 40
0.0
 40
0.0
 40
0.0
 40
0.0
 40
1.0
 40
1.0
 40
1.0
 40
1.0
 10
156.2812
 20
-73.11029999999999
 30
0.0
 10
156.2812
 20
-73.11029999999999
 30
0.0
 10
156.2812
 20
-71.81
 30
0.0
 10
156.2812
 20
-71.81
 30
0.0
  0
SPLINE
  5
12E
330
1F
100
AcDbEntity
  8
DEFPOINTS
370
    25
100
AcDbSpline
210
0.0
220
0.0
230
1.0
 70
    24
 71
     3
 72
     8
 73
     4
 74
     0
 42
0.0000000001
 43
0.0000000001
 40
0.0
 40
0.0
 40
0.0
 40
0.0
 40
1.0
 40
1.0
 40
1.0
 40
1.0
 10
156.2812
 20
-71.1597
 30
0.0
 10
156.2812
 20
-71.1597
 30
0.0
 10
156.2812
 20
-69.8853
 30
0.0
 10
156.2812
 20
-69.8853
 30
0.0
  0
SPLINE
  5
12F
330
1F
100
AcDbEntity
  8
DEFPOINTS
370
    25
100
AcDbSpline
210
0.0
220
0.0
230
1.0
 70
    24
 71
     3
 72
     8
 73
     4
 74
     0
 42
0.0000000001
 43
0.0000000001
 40
0.0
 40
0.0
 40
0.0
 40
0.0
 40
1.0
 40
1.0
 40
1.0
 40
1.0
 10
156.2812
 20
-69.2352
 30
0.0
 10
156.2812
 20
-69.2352
 30
0.0
 10
156.2812
 20
-67.93470000000001
 30
0.0
 10
156.2812
 20
-67.93470000000001
 30
0.0
  0
SPLINE
  5
130
330
1F
100
AcDbEntity
  8
DEFPOINTS
370
    25
100
AcDbSpline
210
0.0
220
0.0
230
1.0
 70
    24
 71
     3
 72
     8
 73
     4
 74
     0
 42
0.0000000001
 43
0.0000000001
 40
0.0
 40
0.0
 40
0.0
 40
0.0
 40
1.0
 40
1.0
 40
1.0
 40
1.0
 10
156.2812
 20
-67.2846
 30
0.0
 10
156.2812
 20
-67.2846
 30
0.0
 10
156.2812
 20
-65.9841
 30
0.0
 10
156.2812
 20
-65.9841
 30
0.0
  0
SPLINE
  5
131
330
1F
100
AcDbEntity
  8
DEFPOINTS
370
    25
100
AcDbSpline
210
0.0
220
0.0
230
1.0
 70
    24
 71
     3
 72
     8
 73
     4
 74
     0
 42
0.0000000001
 43
0.0000000001
 40
0.0
 40
0.0
 40
0.0
 40
0.0
 40
1.0
 40
1.0
 40
1.0
 40
1.0
 10
156.2812
 20
-65.334
 30
0.0
 10
156.2812
 20
-65.334
 30
0.0
 10
156.2812
 20
-64.0596
 30
0.0
 10
156.2812
 20
-64.0596
 30
0.0
  0
SPLINE
  5
132
330
1F
100
AcDbEntity
  8
DEFPOINTS
370
    25
100
AcDbSpline
210
0.0
220
0.0
230
1.0
 70
    24
 71
     3
 72
     8
 73
     4
 74
     0
 42
0.0000000001
 43
0.0000000001
 40
0.0
 40
0.0
 40
0.0
 40
0.0
 40
1.0
 40
1.0
 40
1.0
 40
1.0
 10
156.2812
 20
-63.40939999999999
 30
0.0
 10
156.2812
 20
-63.40939999999999
 30
0.0
 10
156.2812
 20
-62.10899999999999
 30
0.0
 10
156.2812
 20
-62.10899999999999
 30
0.0
  0
SPLINE
  5
133
330
1F
100
AcDbEntity
  8
DEFPOINTS
370
    25
100
AcDbSpline
210
0.0
220
0.0
230
1.0
 70
    24
 71
     3
 72
     8
 73
     4
 74
     0
 42
0.0000000001
 43
0.0000000001
 40
0.0
 40
0.0
 40
0.0
 40
0.0
 40
1.0
 40
1.0
 40
1.0
 40
1.0
 10
156.2812
 20
-61.4588
 30
0.0
 10
156.2812
 20
-61.4588
 30
0.0
 10
156.2812
 20
-60.1584
 30
0.0
 10
156.2812
 20
-60.1584
 30
0.0
  0
SPLINE
  5
134
330
1F
100
AcDbEntity
  8
DEFPOINTS
370
    25
100
AcDbSpline
210
0.0
220
0.0
230
1.0
 70
    24
 71
     3
 72
     8
 73
     4
 74
     0
 42
0.0000000001
 43
0.0000000001
 40
0.0
 40
0.0
 40
0.0
 40
0.0
 40
1.0
 40
1.0
 40
1.0
 40
1.0
 10
156.2812
 20
-59.5342
 30
0.0
 10
156.2812
 20
-59.5342
 30
0.0
 10
156.2812
 20
-58.23389999999999
 30
0.0
 10
156.2812
 20
-58.23389999999999
 30
0.0
  0
SPLINE
  5
135
330
1F
100
AcDbEntity
  8
DEFPOINTS
370
    25
100
AcDbSpline
210
0.0
220
0.0
230
1.0
 70
    24
 71
     3
 72
     8
 73
     4
 74
     0
 42
0.0000000001
 43
0.0000000001
 40
0.0
 40
0.0
 40
0.0
 40
0.0
 40
1.0
 40
1.0
 40
1.0
 40
1.0
 10
156.2812
 20
-57.5837
 30
0.0
 10
156.2812
 20
-57.5837
 30
0.0
 10
156.2812
 20
-56.2833
 30
0.0
 10
156.2812
 20
-56.2833
 30
0.0
  0
SPLINE
  5
136
330
1F
100
AcDbEntity
  8
DEFPOINTS
370
    25
100
AcDbSpline
210
0.0
220
0.0
230
1.0
 70
    24
 71
     3
 72
     8
 73
     4
 74
     0
 42
0.0000000001
 43
0.0000000001
 40
0.0
 40
0.0
 40
0.0
 40
0.0
 40
1.0
 40
1.0
 40
1.0
 40
1.0
 10
156.2812
 20
-55.6331
 30
0.0
 10
156.2812
 20
-55.6331
 30
0.0
 10
156.2812
 20
-54.3587
 30
0.0
 10
156.2812
 20
-54.3587
 30
0.0
  0
SPLINE
  5
137
330
1F
100
AcDbEntity
  8
DEFPOINTS
370
    25
100
AcDbSpline
210
0.0
220
0.0
230
1.0
 70
    24
 71
     3
 72
     8
 73
     4
 74
     0
 42
0.0000000001
 43
0.0000000001
 40
0.0
 40
0.0
 40
0.0
 40
0.0
 40
1.0
 40
1.0
 40
1.0
 40
1.0
 10
156.2812
 20
-53.7085
 30
0.0
 10
156.2812
 20
-53.7085
 30
0.0
 10
156.2812
 20
-52.40809999999999
 30
0.0
 10
156.2812
 20
-52.40809999999999
 30
0.0
  0
SPLINE
  5
138
330
1F
100
AcDbEntity
  8
DEFPOINTS
370
    25
100
AcDbSpline
210
0.0
220
0.0
230
1.0
 70
    24
 71
     3
 72
     8
 73
     4
 74
     0
 42
0.0000000001
 43
0.0000000001
 40
0.0
 40
0.0
 40
0.0
 40
0.0
 40
1.0
 40
1.0
 40
1.0
 40
1.0
 10
156.2812
 20
-51.758
 30
0.0
 10
156.2812
 20
-51.758
 30
0.0
 10
156.2812
 20
-50.4575
 30
0.0
 10
156.2812
 20
-50.4575
 30
0.0
  0
SPLINE
  5
139
330
1F
100
AcDbEntity
  8
DEFPOINTS
370
    25
100
AcDbSpline
210
0.0
220
0.0
230
1.0
 70
    24
 71
     3
 72
     8
 73
     4
 74
     0
 42
0.0000000001
 43
0.0000000001
 40
0.0
 40
0.0
 40
0.0
 40
0.0
 40
1.0
 40
1.0
 40
1.0
 40
1.0
 10
156.2812
 20
-49.8074
 30
0.0
 10
156.2812
 20
-49.8074
 30
0.0
 10
156.2812
 20
-48.533
 30
0.0
 10
156.2812
 20
-48.533
 30
0.0
  0
SPLINE
  5
13A
330
1F
100
AcDbEntity
  8
DEFPOINTS
370
    25
100
AcDbSpline
210
0.0
220
0.0
230
1.0
 70
    24
 71
     3
 72
     8
 73
     4
 74
     0
 42
0.0000000001
 43
0.0000000001
 40
0.0
 40
0.0
 40
0.0
 40
0.0
 40
1.0
 40
1.0
 40
1.0
 40
1.0
 10
156.2812
 20
-47.88269999999999
 30
0.0
 10
156.2812
 20
-47.88269999999999
 30
0.0
 10
156.2812
 20
-46.5824
 30
0.0
 10
156.2812
 20
-46.5824
 30
0.0
  0
SPLINE
  5
13B
330
1F
100
AcDbEntity
  8
DEFPOINTS
370
    25
100
AcDbSpline
210
0.0
220
0.0
230
1.0
 70
    24
 71
     3
 72
     8
 73
     4
 74
     0
 42
0.0000000001
 43
0.0000000001
 40
0.0
 40
0.0
 40
0.0
 40
0.0
 40
1.0
 40
1.0
 40
1.0
 40
1.0
 10
156.2812
 20
-45.9321
 30
0.0
 10
156.2812
 20
-45.9321
 30
0.0
 10
156.2812
 20
-44.6318
 30
0.0
 10
156.2812
 20
-44.6318
 30
0.0
  0
SPLINE
  5
13C
330
1F
100
AcDbEntity
  8
DEFPOINTS
370
    25
100
AcDbSpline
210
0.0
220
0.0
230
1.0
 70
    24
 71
     3
 72
     8
 73
     4
 74
     0
 42
0.0000000001
 43
0.0000000001
 40
0.0
 40
0.0
 40
0.0
 40
0.0
 40
1.0
 40
1.0
 40
1.0
 40
1.0
 10
156.2812
 20
-44.0076
 30
0.0
 10
156.2812
 20
-44.0076
 30
0.0
 10
156.2812
 20
-42.70729999999999
 30
0.0
 10
156.2812
 20
-42.70729999999999
 30
0.0
  0
SPLINE
  5
13D
330
1F
100
AcDbEntity
  8
DEFPOINTS
370
    25
100
AcDbSpline
210
0.0
220
0.0
230
1.0
 70
    24
 71
     3
 72
     8
 73
     4
 74
     0
 42
0.0000000001
 43
0.0000000001
 40
0.0
 40
0.0
 40
0.0
 40
0.0
 40
1.0
 40
1.0
 40
1.0
 40
1.0
 10
156.2812
 20
-42.05699999999999
 30
0.0
 10
156.2812
 20
-42.05699999999999
 30
0.0
 10
156.2812
 20
-40.7567
 30
0.0
 10
156.2812
 20
-40.7567
 30
0.0
  0
SPLINE
  5
13E
330
1F
100
AcDbEntity
  8
DEFPOINTS
370
    25
100
AcDbSpline
210
0.0
220
0.0
230
1.0
 70
    24
 71
     3
 72
     8
 73
     4
 74
     0
 42
0.0000000001
 43
0.0000000001
 40
0.0
 40
0.0
 40
0.0
 40
0.0
 40
1.0
 40
1.0
 40
1.0
 40
1.0
 10
156.2812
 20
-40.1064
 30
0.0
 10
156.2812
 20
-40.1064
 30
0.0
 10
156.2812
 20
-38.832
 30
0.0
 10
156.2812
 20
-38.832
 30
0.0
  0
SPLINE
  5
13F
330
1F
100
AcDbEntity
  8
DEFPOINTS
370
    25
100
AcDbSpline
210
0.0
220
0.0
230
1.0
 70
    24
 71
     3
 72
     8
 73
     4
 74
     0
 42
0.0000000001
 43
0.0000000001
 40
0.0
 40
0.0
 40
0.0
 40
0.0
 40
1.0
 40
1.0
 40
1.0
 40
1.0
 10
156.2812
 20
-38.1819
 30
0.0
 10
156.2812
 20
-38.1819
 30
0.0
 10
156.2812
 20
-36.8814
 30
0.0
 10
156.2812
 20
-36.8814
 30
0.0
  0
SPLINE
  5
140
330
1F
100
AcDbEntity
  8
DEFPOINTS
370
    25
100
AcDbSpline
210
0.0
220
0.0
230
1.0
 70
    24
 71
     3
 72
     8
 73
     4
 74
     0
 42
0.0000000001
 43
0.0000000001
 40
0.0
 40
0.0
 40
0.0
 40
0.0
 40
1.0
 40
1.0
 40
1.0
 40
1.0
 10
156.2812
 20
-36.2313
 30
0.0
 10
156.2812
 20
-36.2313
 30
0.0
 10
156.2812
 20
-34.9308
 30
0.0
 10
156.2812
 20
-34.9308
 30
0.0
  0
SPLINE
  5
141
330
1F
100
AcDbEntity
  8
DEFPOINTS
370
    25
100
AcDbSpline
210
0.0
220
0.0
230
1.0
 70
    24
 71
     3
 72
     8
 73
     4
 74
     0
 42
0.0000000001
 43
0.0000000001
 40
0.0
 40
0.0
 40
0.0
 40
0.0
 40
1.0
 40
1.0
 40
1.0
 40
1.0
 10
156.2812
 20
-34.2807
 30
0.0
 10
156.2812
 20
-34.2807
 30
0.0
 10
156.2812
 20
-33.0063
 30
0.0
 10
156.2812
 20
-33.0063
 30
0.0
  0
SPLINE
  5
142
330
1F
100
AcDbEntity
  8
DEFPOINTS
370
    25
100
AcDbSpline
210
0.0
220
0.0
230
1.0
 70
    24
 71
     3
 72
     8
 73
     4
 74
     0
 42
0.0000000001
 43
0.0000000001
 40
0.0
 40
0.0
 40
0.0
 40
0.0
 40
1.0
 40
1.0
 40
1.0
 40
1.0
 10
156.2812
 20
-32.3561
 30
0.0
 10
156.2812
 20
-32.3561
 30
0.0
 10
156.2812
 20
-31.0557
 30
0.0
 10
156.2812
 20
-31.0557
 30
0.0
  0
SPLINE
  5
143
330
1F
100
AcDbEntity
  8
DEFPOINTS
370
    25
100
AcDbSpline
210
0.0
220
0.0
230
1.0
 70
    24
 71
     3
 72
     8
 73
     4
 74
     0
 42
0.0000000001
 43
0.0000000001
 40
0.0
 40
0.0
 40
0.0
 40
0.0
 40
1.0
 40
1.0
 40
1.0
 40
1.0
 10
156.2812
 20
-30.4055
 30
0.0
 10
156.2812
 20
-30.4055
 30
0.0
 10
156.2812
 20
-29.1051
 30
0.0
 10
156.2812
 20
-29.1051
 30
0.0
  0
SPLINE
  5
144
330
1F
100
AcDbEntity
  8
DEFPOINTS
370
    25
100
AcDbSpline
210
0.0
220
0.0
230
1.0
 70
    24
 71
     3
 72
     8
 73
     4
 74
     0
 42
0.0000000001
 43
0.0000000001
 40
0.0
 40
0.0
 40
0.0
 40
0.0
 40
1.0
 40
1.0
 40
1.0
 40
1.0
 10
156.2812
 20
-28.481
 30
0.0
 10
156.2812
 20
-28.481
 30
0.0
 10
156.2812
 20
-27.1806
 30
0.0
 10
156.2812
 20
-27.1806
 30
0.0
  0
SPLINE
  5
145
330
1F
100
AcDbEntity
  8
DEFPOINTS
370
    25
100
AcDbSpline
210
0.0
220
0.0
230
1.0
 70
    24
 71
     3
 72
     8
 73
     4
 74
     0
 42
0.0000000001
 43
0.0000000001
 40
0.0
 40
0.0
 40
0.0
 40
0.0
 40
1.0
 40
1.0
 40
1.0
 40
1.0
 10
156.2812
 20
-26.5304
 30
0.0
 10
156.2812
 20
-26.5304
 30
0.0
 10
156.2812
 20
-25.23
 30
0.0
 10
156.2812
 20
-25.23
 30
0.0
  0
SPLINE
  5
146
330
1F
100
AcDbEntity
  8
DEFPOINTS
370
    25
100
AcDbSpline
210
0.0
220
0.0
230
1.0
 70
    24
 71
     3
 72
     8
 73
     4
 74
     0
 42
0.0000000001
 43
0.0000000001
 40
0.0
 40
0.0
 40
0.0
 40
0.0
 40
1.0
 40
1.0
 40
1.0
 40
1.0
 10
156.2812
 20
-24.5798
 30
0.0
 10
156.2812
 20
-24.5798
 30
0.0
 10
156.2812
 20
-23.3054
 30
0.0
 10
156.2812
 20
-23.3054
 30
0.0
  0
SPLINE
  5
147
330
1F
100
AcDbEntity
  8
DEFPOINTS
370
    25
100
AcDbSpline
210
0.0
220
0.0
230
1.0
 70
    24
 71
     3
 72
     8
 73
     4
 74
     0
 42
0.0000000001
 43
0.0000000001
 40
0.0
 40
0.0
 40
0.0
 40
0.0
 40
1.0
 40
1.0
 40
1.0
 40
1.0
 10
156.2812
 20
-22.6553
 30
0.0
 10
156.2812
 20
-22.6553
 30
0.0
 10
156.2812
 20
-21.3548
 30
0.0
 10
156.2812
 20
-21.3548
 30
0.0
  0
SPLINE
  5
148
330
1F
100
AcDbEntity
  8
DEFPOINTS
370
    25
100
AcDbSpline
210
0.0
220
0.0
230
1.0
 70
    24
 71
     3
 72
     8
 73
     4
 74
     0
 42
0.0000000001
 43
0.0000000001
 40
0.0
 40
0.0
 40
0.0
 40
0.0
 40
1.0
 40
1.0
 40
1.0
 40
1.0
 10
156.2812
 20
-20.7047
 30
0.0
 10
156.2812
 20
-20.7047
 30
0.0
 10
156.2812
 20
-19.4042
 30
0.0
 10
156.2812
 20
-19.4042
 30
0.0
  0
SPLINE
  5
149
330
1F
100
AcDbEntity
  8
DEFPOINTS
370
    25
100
AcDbSpline
210
0.0
220
0.0
230
1.0
 70
    24
 71
     3
 72
     8
 73
     4
 74
     0
 42
0.0000000001
 43
0.0000000001
 40
0.0
 40
0.0
 40
0.0
 40
0.0
 40
1.0
 40
1.0
 40
1.0
 40
1.0
 10
156.2812
 20
-18.78
 30
0.0
 10
156.2812
 20
-18.78
 30
0.0
 10
156.2812
 20
-17.4797
 30
0.0
 10
156.2812
 20
-17.4797
 30
0.0
  0
SPLINE
  5
14A
330
1F
100
AcDbEntity
  8
DEFPOINTS
370
    25
100
AcDbSpline
210
0.0
220
0.0
230
1.0
 70
    24
 71
     3
 72
     8
 73
     4
 74
     0
 42
0.0000000001
 43
0.0000000001
 40
0.0
 40
0.0
 40
0.0
 40
0.0
 40
1.0
 40
1.0
 40
1.0
 40
1.0
 10
156.2812
 20
-16.8294
 30
0.0
 10
156.2812
 20
-16.8294
 30
0.0
 10
156.2812
 20
-15.5291
 30
0.0
 10
156.2812
 20
-15.5291
 30
0.0
  0
SPLINE
  5
14B
330
1F
100
AcDbEntity
  8
DEFPOINTS
370
    25
100
AcDbSpline
210
0.0
220
0.0
230
1.0
 70
    24
 71
     3
 72
     8
 73
     4
 74
     0
 42
0.0000000001
 43
0.0000000001
 40
0.0
 40
0.0
 40
0.0
 40
0.0
 40
1.0
 40
1.0
 40
1.0
 40
1.0
 10
156.2812
 20
-14.8788
 30
0.0
 10
156.2812
 20
-14.8788
 30
0.0
 10
156.2812
 20
-13.6045
 30
0.0
 10
156.2812
 20
-13.6045
 30
0.0
  0
SPLINE
  5
14C
330
1F
100
AcDbEntity
  8
DEFPOINTS
370
    25
100
AcDbSpline
210
0.0
220
0.0
230
1.0
 70
    24
 71
     3
 72
     8
 73
     4
 74
     0
 42
0.0000000001
 43
0.0000000001
 40
0.0
 40
0.0
 40
0.0
 40
0.0
 40
1.0
 40
1.0
 40
1.0
 40
1.0
 10
156.2812
 20
-12.9543
 30
0.0
 10
156.2812
 20
-12.9543
 30
0.0
 10
156.2812
 20
-11.654
 30
0.0
 10
156.2812
 20
-11.654
 30
0.0
  0
SPLINE
  5
14D
330
1F
100
AcDbEntity
  8
DEFPOINTS
370
    25
100
AcDbSpline
210
0.0
220
0.0
230
1.0
 70
    24
 71
     3
 72
     8
 73
     4
 74
     0
 42
0.0000000001
 43
0.0000000001
 40
0.0
 40
0.0
 40
0.0
 40
0.0
 40
1.0
 40
1.0
 40
1.0
 40
1.0
 10
156.2812
 20
-11.0037
 30
0.0
 10
156.2812
 20
-11.0037
 30
0.0
 10
156.2812
 20
-9.7034
 30
0.0
 10
156.2812
 20
-9.7034
 30
0.0
  0
SPLINE
  5
14E
330
1F
100
AcDbEntity
  8
DEFPOINTS
370
    25
100
AcDbSpline
210
0.0
220
0.0
230
1.0
 70
    24
 71
     3
 72
     8
 73
     4
 74
     0
 42
0.0000000001
 43
0.0000000001
 40
0.0
 40
0.0
 40
0.0
 40
0.0
 40
1.0
 40
1.0
 40
1.0
 40
1.0
 10
156.2812
 20
-9.0531
 30
0.0
 10
156.2812
 20
-9.0531
 30
0.0
 10
156.2812
 20
-7.778699999999999
 30
0.0
 10
156.2812
 20
-7.778699999999999
 30
0.0
  0
SPLINE
  5
14F
330
1F
100
AcDbEntity
  8
DEFPOINTS
370
    25
100
AcDbSpline
210
0.0
220
0.0
230
1.0
 70
    24
 71
     3
 72
     8
 73
     4
 74
     0
 42
0.0000000001
 43
0.0000000001
 40
0.0
 40
0.0
 40
0.0
 40
0.0
 40
1.0
 40
1.0
 40
1.0
 40
1.0
 10
156.2812
 20
-7.128599999999999
 30
0.0
 10
156.2812
 20
-7.128599999999999
 30
0.0
 10
156.2812
 20
-5.8281
 30
0.0
 10
156.2812
 20
-5.8281
 30
0.0
  0
SPLINE
  5
150
330
1F
100
AcDbEntity
  8
DEFPOINTS
370
    25
100
AcDbSpline
210
0.0
220
0.0
230
1.0
 70
    24
 71
     3
 72
     8
 73
     4
 74
     0
 42
0.0000000001
 43
0.0000000001
 40
0.0
 40
0.0
 40
0.0
 40
0.0
 40
1.0
 40
1.0
 40
1.0
 40
1.0
 10
156.2812
 20
-5.177999999999999
 30
0.0
 10
156.2812
 20
-5.177999999999999
 30
0.0
 10
156.2812
 20
-4.007699999999999
 30
0.0
 10
156.2812
 20
-4.007699999999999
 30
0.0
  0
SPLINE
  5
151
330
1F
100
AcDbEntity
  8
DEFPOINTS
370
    25
100
AcDbSpline
210
0.0
220
0.0
230
1.0
 70
    24
 71
     3
 72
     8
 73
     4
 74
     0
 42
0.0000000001
 43
0.0000000001
 40
0.0
 40
0.0
 40
0.0
 40
0.0
 40
1.0
 40
1.0
 40
1.0
 40
1.0
 10
158.9833
 20
-1.4069
 30
0.0
 10
158.9833
 20
-1.4069
 30
0.0
 10
159.9658
 20
-1.4069
 30
0.0
 10
159.9658
 20
-1.4069
 30
0.0
  0
SPLINE
  5
152
330
1F
100
AcDbEntity
  8
DEFPOINTS
370
    25
100
AcDbSpline
210
0.0
220
0.0
230
1.0
 70
    24
 71
     3
 72
     8
 73
     4
 74
     0
 42
0.0000000001
 43
0.0000000001
 40
0.0
 40
0.0
 40
0.0
 40
0.0
 40
1.0
 40
1.0
 40
1.0
 40
1.0
 10
160.6482
 20
-1.4069
 30
0.0
 10
160.6482
 20
-1.4069
 30
0.0
 10
161.9855
 20
-1.4069
 30
0.0
 10
161.9855
 20
-1.4069
 30
0.0
  0
SPLINE
  5
153
330
1F
100
AcDbEntity
  8
DEFPOINTS
370
    25
100
AcDbSpline
210
0.0
220
0.0
230
1.0
 70
    24
 71
     3
 72
     8
 73
     4
 74
     0
 42
0.0000000001
 43
0.0000000001
 40
0.0
 40
0.0
 40
0.0
 40
0.0
 40
1.0
 40
1.0
 40
1.0
 40
1.0
 10
162.6679
 20
-1.4069
 30
0.0
 10
162.6679
 20
-1.4069
 30
0.0
 10
164.0325
 20
-1.4069
 30
0.0
 10
164.0325
 20
-1.4069
 30
0.0
  0
SPLINE
  5
154
330
1F
100
AcDbEntity
  8
DEFPOINTS
370
    25
100
AcDbSpline
210
0.0
220
0.0
230
1.0
 70
    24
 71
     3
 72
     8
 73
     4
 74
     0
 42
0.0000000001
 43
0.0000000001
 40
0.0
 40
0.0
 40
0.0
 40
0.0
 40
1.0
 40
1.0
 40
1.0
 40
1.0
 10
164.7149
 20
-1.4069
 30
0.0
 10
164.7149
 20
-1.4069
 30
0.0
 10
166.0795
 20
-1.4069
 30
0.0
 10
166.0795
 20
-1.4069
 30
0.0
  0
SPLINE
  5
155
330
1F
100
AcDbEntity
  8
DEFPOINTS
370
    25
100
AcDbSpline
210
0.0
220
0.0
230
1.0
 70
    24
 71
     3
 72
     8
 73
     4
 74
     0
 42
0.0000000001
 43
0.0000000001
 40
0.0
 40
0.0
 40
0.0
 40
0.0
 40
1.0
 40
1.0
 40
1.0
 40
1.0
 10
166.7619
 20
-1.4069
 30
0.0
 10
166.7619
 20
-1.4069
 30
0.0
 10
168.0993
 20
-1.4069
 30
0.0
 10
168.0993
 20
-1.4069
 30
0.0
  0
SPLINE
  5
156
330
1F
100
AcDbEntity
  8
DEFPOINTS
370
    25
100
AcDbSpline
210
0.0
220
0.0
230
1.0
 70
    24
 71
     3
 72
     8
 73
     4
 74
     0
 42
0.0000000001
 43
0.0000000001
 40
0.0
 40
0.0
 40
0.0
 40
0.0
 40
1.0
 40
1.0
 40
1.0
 40
1.0
 10
168.7816
 20
-1.4069
 30
0.0
 10
168.7816
 20
-1.4069
 30
0.0
 10
170.1463
 20
-1.4069
 30
0.0
 10
170.1463
 20
-1.4069
 30
0.0
  0
SPLINE
  5
157
330
1F
100
AcDbEntity
  8
DEFPOINTS
370
    25
100
AcDbSpline
210
0.0
220
0.0
230
1.0
 70
    24
 71
     3
 72
     8
 73
     4
 74
     0
 42
0.0000000001
 43
0.0000000001
 40
0.0
 40
0.0
 40
0.0
 40
0.0
 40
1.0
 40
1.0
 40
1.0
 40
1.0
 10
170.8286
 20
-1.4069
 30
0.0
 10
170.8286
 20
-1.4069
 30
0.0
 10
172.166
 20
-1.4069
 30
0.0
 10
172.166
 20
-1.4069
 30
0.0
  0
SPLINE
  5
158
330
1F
100
AcDbEntity
  8
DEFPOINTS
370
    25
100
AcDbSpline
210
0.0
220
0.0
230
1.0
 70
    24
 71
     3
 72
     8
 73
     4
 74
     0
 42
0.0000000001
 43
0.0000000001
 40
0.0
 40
0.0
 40
0.0
 40
0.0
 40
1.0
 40
1.0
 40
1.0
 40
1.0
 10
172.8484
 20
-1.4069
 30
0.0
 10
172.8484
 20
-1.4069
 30
0.0
 10
174.213
 20
-1.4069
 30
0.0
 10
174.213
 20
-1.4069
 30
0.0
  0
SPLINE
  5
159
330
1F
100
AcDbEntity
  8
DEFPOINTS
370
    25
100
AcDbSpline
210
0.0
220
0.0
230
1.0
 70
    24
 71
     3
 72
     8
 73
     4
 74
     0
 42
0.0000000001
 43
0.0000000001
 40
0.0
 40
0.0
 40
0.0
 40
0.0
 40
1.0
 40
1.0
 40
1.0
 40
1.0
 10
174.8954
 20
-1.4069
 30
0.0
 10
174.8954
 20
-1.4069
 30
0.0
 10
176.26
 20
-1.4069
 30
0.0
 10
176.26
 20
-1.4069
 30
0.0
  0
SPLINE
  5
15A
330
1F
100
AcDbEntity
  8
DEFPOINTS
370
    25
100
AcDbSpline
210
0.0
220
0.0
230
1.0
 70
    24
 71
     3
 72
     8
 73
     4
 74
     0
 42
0.0000000001
 43
0.0000000001
 40
0.0
 40
0.0
 40
0.0
 40
0.0
 40
1.0
 40
1.0
 40
1.0
 40
1.0
 10
176.9424
 20
-1.4069
 30
0.0
 10
176.9424
 20
-1.4069
 30
0.0
 10
178.2796
 20
-1.4069
 30
0.0
 10
178.2796
 20
-1.4069
 30
0.0
  0
SPLINE
  5
15B
330
1F
100
AcDbEntity
  8
DEFPOINTS
370
    25
100
AcDbSpline
210
0.0
220
0.0
230
1.0
 70
    24
 71
     3
 72
     8
 73
     4
 74
     0
 42
0.0000000001
 43
0.0000000001
 40
0.0
 40
0.0
 40
0.0
 40
0.0
 40
1.0
 40
1.0
 40
1.0
 40
1.0
 10
178.962
 20
-1.4069
 30
0.0
 10
178.962
 20
-1.4069
 30
0.0
 10
180.3266
 20
-1.4069
 30
0.0
 10
180.3266
 20
-1.4069
 30
0.0
  0
SPLINE
  5
15C
330
1F
100
AcDbEntity
  8
DEFPOINTS
370
    25
100
AcDbSpline
210
0.0
220
0.0
230
1.0
 70
    24
 71
     3
 72
     8
 73
     4
 74
     0
 42
0.0000000001
 43
0.0000000001
 40
0.0
 40
0.0
 40
0.0
 40
0.0
 40
1.0
 40
1.0
 40
1.0
 40
1.0
 10
181.009
 20
-1.4069
 30
0.0
 10
181.009
 20
-1.4069
 30
0.0
 10
182.3736
 20
-1.4069
 30
0.0
 10
182.3736
 20
-1.4069
 30
0.0
  0
SPLINE
  5
15D
330
1F
100
AcDbEntity
  8
DEFPOINTS
370
    25
100
AcDbSpline
210
0.0
220
0.0
230
1.0
 70
    24
 71
     3
 72
     8
 73
     4
 74
     0
 42
0.0000000001
 43
0.0000000001
 40
0.0
 40
0.0
 40
0.0
 40
0.0
 40
1.0
 40
1.0
 40
1.0
 40
1.0
 10
183.0287
 20
-1.4069
 30
0.0
 10
183.0287
 20
-1.4069
 30
0.0
 10
184.3934
 20
-1.4069
 30
0.0
 10
184.3934
 20
-1.4069
 30
0.0
  0
SPLINE
  5
15E
330
1F
100
AcDbEntity
  8
DEFPOINTS
370
    25
100
AcDbSpline
210
0.0
220
0.0
230
1.0
 70
    24
 71
     3
 72
     8
 73
     4
 74
     0
 42
0.0000000001
 43
0.0000000001
 40
0.0
 40
0.0
 40
0.0
 40
0.0
 40
1.0
 40
1.0
 40
1.0
 40
1.0
 10
185.0757
 20
-1.4069
 30
0.0
 10
185.0757
 20
-1.4069
 30
0.0
 10
186.4404
 20
-1.4069
 30
0.0
 10
186.4404
 20
-1.4069
 30
0.0
  0
SPLINE
  5
15F
330
1F
100
AcDbEntity
  8
DEFPOINTS
370
    25
100
AcDbSpline
210
0.0
220
0.0
230
1.0
 70
    24
 71
     3
 72
     8
 73
     4
 74
     0
 42
0.0000000001
 43
0.0000000001
 40
0.0
 40
0.0
 40
0.0
 40
0.0
 40
1.0
 40
1.0
 40
1.0
 40
1.0
 10
187.1227
 20
-1.4069
 30
0.0
 10
187.1227
 20
-1.4069
 30
0.0
 10
188.4601
 20
-1.4069
 30
0.0
 10
188.4601
 20
-1.4069
 30
0.0
  0
SPLINE
  5
160
330
1F
100
AcDbEntity
  8
DEFPOINTS
370
    25
100
AcDbSpline
210
0.0
220
0.0
230
1.0
 70
    24
 71
     3
 72
     8
 73
     4
 74
     0
 42
0.0000000001
 43
0.0000000001
 40
0.0
 40
0.0
 40
0.0
 40
0.0
 40
1.0
 40
1.0
 40
1.0
 40
1.0
 10
189.1425
 20
-1.4069
 30
0.0
 10
189.1425
 20
-1.4069
 30
0.0
 10
190.5071
 20
-1.4069
 30
0.0
 10
190.5071
 20
-1.4069
 30
0.0
  0
SPLINE
  5
161
330
1F
100
AcDbEntity
  8
DEFPOINTS
370
    25
100
AcDbSpline
210
0.0
220
0.0
230
1.0
 70
    24
 71
     3
 72
     8
 73
     4
 74
     0
 42
0.0000000001
 43
0.0000000001
 40
0.0
 40
0.0
 40
0.0
 40
0.0
 40
1.0
 40
1.0
 40
1.0
 40
1.0
 10
191.1895
 20
-1.4069
 30
0.0
 10
191.1895
 20
-1.4069
 30
0.0
 10
192.5541
 20
-1.4069
 30
0.0
 10
192.5541
 20
-1.4069
 30
0.0
  0
SPLINE
  5
162
330
1F
100
AcDbEntity
  8
DEFPOINTS
370
    25
100
AcDbSpline
210
0.0
220
0.0
230
1.0
 70
    24
 71
     3
 72
     8
 73
     4
 74
     0
 42
0.0000000001
 43
0.0000000001
 40
0.0
 40
0.0
 40
0.0
 40
0.0
 40
1.0
 40
1.0
 40
1.0
 40
1.0
 10
193.2365
 20
-1.4069
 30
0.0
 10
193.2365
 20
-1.4069
 30
0.0
 10
194.5738
 20
-1.4069
 30
0.0
 10
194.5738
 20
-1.4069
 30
0.0
  0
SPLINE
  5
163
330
1F
100
AcDbEntity
  8
DEFPOINTS
370
    25
100
AcDbSpline
210
0.0
220
0.0
230
1.0
 70
    24
 71
     3
 72
     8
 73
     4
 74
     0
 42
0.0000000001
 43
0.0000000001
 40
0.0
 40
0.0
 40
0.0
 40
0.0
 40
1.0
 40
1.0
 40
1.0
 40
1.0
 10
195.2562
 20
-1.4069
 30
0.0
 10
195.2562
 20
-1.4069
 30
0.0
 10
196.6208
 20
-1.4069
 30
0.0
 10
196.6208
 20
-1.4069
 30
0.0
  0
SPLINE
  5
164
330
1F
100
AcDbEntity
  8
DEFPOINTS
370
    25
100
AcDbSpline
210
0.0
220
0.0
230
1.0
 70
    24
 71
     3
 72
     8
 73
     4
 74
     0
 42
0.0000000001
 43
0.0000000001
 40
0.0
 40
0.0
 40
0.0
 40
0.0
 40
1.0
 40
1.0
 40
1.0
 40
1.0
 10
197.3032
 20
-1.4069
 30
0.0
 10
197.3032
 20
-1.4069
 30
0.0
 10
198.6678
 20
-1.4069
 30
0.0
 10
198.6678
 20
-1.4069
 30
0.0
  0
SPLINE
  5
165
330
1F
100
AcDbEntity
  8
DEFPOINTS
370
    25
100
AcDbSpline
210
0.0
220
0.0
230
1.0
 70
    24
 71
     3
 72
     8
 73
     4
 74
     0
 42
0.0000000001
 43
0.0000000001
 40
0.0
 40
0.0
 40
0.0
 40
0.0
 40
1.0
 40
1.0
 40
1.0
 40
1.0
 10
199.3228
 20
-1.4069
 30
0.0
 10
199.3228
 20
-1.4069
 30
0.0
 10
200.6876
 20
-1.4069
 30
0.0
 10
200.6876
 20
-1.4069
 30
0.0
  0
SPLINE
  5
166
330
1F
100
AcDbEntity
  8
DEFPOINTS
370
    25
100
AcDbSpline
210
0.0
220
0.0
230
1.0
 70
    24
 71
     3
 72
     8
 73
     4
 74
     0
 42
0.0000000001
 43
0.0000000001
 40
0.0
 40
0.0
 40
0.0
 40
0.0
 40
1.0
 40
1.0
 40
1.0
 40
1.0
 10
201.3698
 20
-1.4069
 30
0.0
 10
201.3698
 20
-1.4069
 30
0.0
 10
202.7346
 20
-1.4069
 30
0.0
 10
202.7346
 20
-1.4069
 30
0.0
  0
SPLINE
  5
167
330
1F
100
AcDbEntity
  8
DEFPOINTS
370
    25
100
AcDbSpline
210
0.0
220
0.0
230
1.0
 70
    24
 71
     3
 72
     8
 73
     4
 74
     0
 42
0.0000000001
 43
0.0000000001
 40
0.0
 40
0.0
 40
0.0
 40
0.0
 40
1.0
 40
1.0
 40
1.0
 40
1.0
 10
203.4168
 20
-1.4069
 30
0.0
 10
203.4168
 20
-1.4069
 30
0.0
 10
204.7543
 20
-1.4069
 30
0.0
 10
204.7543
 20
-1.4069
 30
0.0
  0
SPLINE
  5
168
330
1F
100
AcDbEntity
  8
DEFPOINTS
370
    25
100
AcDbSpline
210
0.0
220
0.0
230
1.0
 70
    24
 71
     3
 72
     8
 73
     4
 74
     0
 42
0.0000000001
 43
0.0000000001
 40
0.0
 40
0.0
 40
0.0
 40
0.0
 40
1.0
 40
1.0
 40
1.0
 40
1.0
 10
205.4366
 20
-1.4069
 30
0.0
 10
205.4366
 20
-1.4069
 30
0.0
 10
206.8013
 20
-1.4069
 30
0.0
 10
206.8013
 20
-1.4069
 30
0.0
  0
SPLINE
  5
169
330
1F
100
AcDbEntity
  8
DEFPOINTS
370
    25
100
AcDbSpline
210
0.0
220
0.0
230
1.0
 70
    24
 71
     3
 72
     8
 73
     4
 74
     0
 42
0.0000000001
 43
0.0000000001
 40
0.0
 40
0.0
 40
0.0
 40
0.0
 40
1.0
 40
1.0
 40
1.0
 40
1.0
 10
207.4836
 20
-1.4069
 30
0.0
 10
207.4836
 20
-1.4069
 30
0.0
 10
208.8483
 20
-1.4069
 30
0.0
 10
208.8483
 20
-1.4069
 30
0.0
  0
SPLINE
  5
16A
330
1F
100
AcDbEntity
  8
DEFPOINTS
370
    25
100
AcDbSpline
210
0.0
220
0.0
230
1.0
 70
    24
 71
     3
 72
     8
 73
     4
 74
     0
 42
0.0000000001
 43
0.0000000001
 40
0.0
 40
0.0
 40
0.0
 40
0.0
 40
1.0
 40
1.0
 40
1.0
 40
1.0
 10
209.5033
 20
-1.4069
 30
0.0
 10
209.5033
 20
-1.4069
 30
0.0
 10
210.8679
 20
-1.4069
 30
0.0
 10
210.8679
 20
-1.4069
 30
0.0
  0
SPLINE
  5
16B
330
1F
100
AcDbEntity
  8
DEFPOINTS
370
    25
100
AcDbSpline
210
0.0
220
0.0
230
1.0
 70
    24
 71
     3
 72
     8
 73
     4
 74
     0
 42
0.0000000001
 43
0.0000000001
 40
0.0
 40
0.0
 40
0.0
 40
0.0
 40
1.0
 40
1.0
 40
1.0
 40
1.0
 10
211.5503
 20
-1.4069
 30
0.0
 10
211.5503
 20
-1.4069
 30
0.0
 10
212.9149
 20
-1.4069
 30
0.0
 10
212.9149
 20
-1.4069
 30
0.0
  0
SPLINE
  5
16C
330
1F
100
AcDbEntity
  8
DEFPOINTS
370
    25
100
AcDbSpline
210
0.0
220
0.0
230
1.0
 70
    24
 71
     3
 72
     8
 73
     4
 74
     0
 42
0.0000000001
 43
0.0000000001
 40
0.0
 40
0.0
 40
0.0
 40
0.0
 40
1.0
 40
1.0
 40
1.0
 40
1.0
 10
213.5973
 20
-1.4069
 30
0.0
 10
213.5973
 20
-1.4069
 30
0.0
 10
214.9347
 20
-1.4069
 30
0.0
 10
214.9347
 20
-1.4069
 30
0.0
  0
SPLINE
  5
16D
330
1F
100
AcDbEntity
  8
DEFPOINTS
370
    25
100
AcDbSpline
210
0.0
220
0.0
230
1.0
 70
    24
 71
     3
 72
     8
 73
     4
 74
     0
 42
0.0000000001
 43
0.0000000001
 40
0.0
 40
0.0
 40
0.0
 40
0.0
 40
1.0
 40
1.0
 40
1.0
 40
1.0
 10
215.617
 20
-1.4069
 30
0.0
 10
215.617
 20
-1.4069
 30
0.0
 10
216.9817
 20
-1.4069
 30
0.0
 10
216.9817
 20
-1.4069
 30
0.0
  0
SPLINE
  5
16E
330
1F
100
AcDbEntity
  8
DEFPOINTS
370
    25
100
AcDbSpline
210
0.0
220
0.0
230
1.0
 70
    24
 71
     3
 72
     8
 73
     4
 74
     0
 42
0.0000000001
 43
0.0000000001
 40
0.0
 40
0.0
 40
0.0
 40
0.0
 40
1.0
 40
1.0
 40
1.0
 40
1.0
 10
217.664
 20
-1.4069
 30
0.0
 10
217.664
 20
-1.4069
 30
0.0
 10
219.0287
 20
-1.4069
 30
0.0
 10
219.0287
 20
-1.4069
 30
0.0
  0
SPLINE
  5
16F
330
1F
100
AcDbEntity
  8
DEFPOINTS
370
    25
100
AcDbSpline
210
0.0
220
0.0
230
1.0
 70
    24
 71
     3
 72
     8
 73
     4
 74
     0
 42
0.0000000001
 43
0.0000000001
 40
0.0
 40
0.0
 40
0.0
 40
0.0
 40
1.0
 40
1.0
 40
1.0
 40
1.0
 10
219.711
 20
-1.4069
 30
0.0
 10
219.711
 20
-1.4069
 30
0.0
 10
221.0484
 20
-1.4069
 30
0.0
 10
221.0484
 20
-1.4069
 30
0.0
  0
SPLINE
  5
170
330
1F
100
AcDbEntity
  8
DEFPOINTS
370
    25
100
AcDbSpline
210
0.0
220
0.0
230
1.0
 70
    24
 71
     3
 72
     8
 73
     4
 74
     0
 42
0.0000000001
 43
0.0000000001
 40
0.0
 40
0.0
 40
0.0
 40
0.0
 40
1.0
 40
1.0
 40
1.0
 40
1.0
 10
221.7308
 20
-1.4069
 30
0.0
 10
221.7308
 20
-1.4069
 30
0.0
 10
223.0954
 20
-1.4069
 30
0.0
 10
223.0954
 20
-1.4069
 30
0.0
  0
SPLINE
  5
171
330
1F
100
AcDbEntity
  8
DEFPOINTS
370
    25
100
AcDbSpline
210
0.0
220
0.0
230
1.0
 70
    24
 71
     3
 72
     8
 73
     4
 74
     0
 42
0.0000000001
 43
0.0000000001
 40
0.0
 40
0.0
 40
0.0
 40
0.0
 40
1.0
 40
1.0
 40
1.0
 40
1.0
 10
223.7778
 20
-1.4069
 30
0.0
 10
223.7778
 20
-1.4069
 30
0.0
 10
225.1424
 20
-1.4069
 30
0.0
 10
225.1424
 20
-1.4069
 30
0.0
  0
SPLINE
  5
172
330
1F
100
AcDbEntity
  8
DEFPOINTS
370
    25
100
AcDbSpline
210
0.0
220
0.0
230
1.0
 70
    24
 71
     3
 72
     8
 73
     4
 74
     0
 42
0.0000000001
 43
0.0000000001
 40
0.0
 40
0.0
 40
0.0
 40
0.0
 40
1.0
 40
1.0
 40
1.0
 40
1.0
 10
225.7974
 20
-1.4069
 30
0.0
 10
225.7974
 20
-1.4069
 30
0.0
 10
227.1621
 20
-1.4069
 30
0.0
 10
227.1621
 20
-1.4069
 30
0.0
  0
SPLINE
  5
173
330
1F
100
AcDbEntity
  8
DEFPOINTS
370
    25
100
AcDbSpline
210
0.0
220
0.0
230
1.0
 70
    24
 71
     3
 72
     8
 73
     4
 74
     0
 42
0.0000000001
 43
0.0000000001
 40
0.0
 40
0.0
 40
0.0
 40
0.0
 40
1.0
 40
1.0
 40
1.0
 40
1.0
 10
227.8444
 20
-1.4069
 30
0.0
 10
227.8444
 20
-1.4069
 30
0.0
 10
229.2091
 20
-1.4069
 30
0.0
 10
229.2091
 20
-1.4069
 30
0.0
  0
SPLINE
  5
174
330
1F
100
AcDbEntity
  8
DEFPOINTS
370
    25
100
AcDbSpline
210
0.0
220
0.0
230
1.0
 70
    24
 71
     3
 72
     8
 73
     4
 74
     0
 42
0.0000000001
 43
0.0000000001
 40
0.0
 40
0.0
 40
0.0
 40
0.0
 40
1.0
 40
1.0
 40
1.0
 40
1.0
 10
229.8914
 20
-1.4069
 30
0.0
 10
229.8914
 20
-1.4069
 30
0.0
 10
231.2289
 20
-1.4069
 30
0.0
 10
231.2289
 20
-1.4069
 30
0.0
  0
SPLINE
  5
175
330
1F
100
AcDbEntity
  8
DEFPOINTS
370
    25
100
AcDbSpline
210
0.0
220
0.0
230
1.0
 70
    24
 71
     3
 72
     8
 73
     4
 74
     0
 42
0.0000000001
 43
0.0000000001
 40
0.0
 40
0.0
 40
0.0
 40
0.0
 40
1.0
 40
1.0
 40
1.0
 40
1.0
 10
231.9111
 20
-1.4069
 30
0.0
 10
231.9111
 20
-1.4069
 30
0.0
 10
233.2759
 20
-1.4069
 30
0.0
 10
233.2759
 20
-1.4069
 30
0.0
  0
SPLINE
  5
176
330
1F
100
AcDbEntity
  8
DEFPOINTS
370
    25
100
AcDbSpline
210
0.0
220
0.0
230
1.0
 70
    24
 71
     3
 72
     8
 73
     4
 74
     0
 42
0.0000000001
 43
0.0000000001
 40
0.0
 40
0.0
 40
0.0
 40
0.0
 40
1.0
 40
1.0
 40
1.0
 40
1.0
 10
233.9581
 20
-1.4069
 30
0.0
 10
233.9581
 20
-1.4069
 30
0.0
 10
235.3229
 20
-1.4069
 30
0.0
 10
235.3229
 20
-1.4069
 30
0.0
  0
SPLINE
  5
177
330
1F
100
AcDbEntity
  8
DEFPOINTS
370
    25
100
AcDbSpline
210
0.0
220
0.0
230
1.0
 70
    24
 71
     3
 72
     8
 73
     4
 74
     0
 42
0.0000000001
 43
0.0000000001
 40
0.0
 40
0.0
 40
0.0
 40
0.0
 40
1.0
 40
1.0
 40
1.0
 40
1.0
 10
236.0051
 20
-1.4069
 30
0.0
 10
236.0051
 20
-1.4069
 30
0.0
 10
237.3425
 20
-1.4069
 30
0.0
 10
237.3425
 20
-1.4069
 30
0.0
  0
SPLINE
  5
178
330
1F
100
AcDbEntity
  8
DEFPOINTS
370
    25
100
AcDbSpline
210
0.0
220
0.0
230
1.0
 70
    24
 71
     3
 72
     8
 73
     4
 74
     0
 42
0.0000000001
 43
0.0000000001
 40
0.0
 40
0.0
 40
0.0
 40
0.0
 40
1.0
 40
1.0
 40
1.0
 40
1.0
 10
238.0249
 20
-1.4069
 30
0.0
 10
238.0249
 20
-1.4069
 30
0.0
 10
239.3895
 20
-1.4069
 30
0.0
 10
239.3895
 20
-1.4069
 30
0.0
  0
SPLINE
  5
179
330
1F
100
AcDbEntity
  8
DEFPOINTS
370
    25
100
AcDbSpline
210
0.0
220
0.0
230
1.0
 70
    24
 71
     3
 72
     8
 73
     4
 74
     0
 42
0.0000000001
 43
0.0000000001
 40
0.0
 40
0.0
 40
0.0
 40
0.0
 40
1.0
 40
1.0
 40
1.0
 40
1.0
 10
240.0719
 20
-1.4069
 30
0.0
 10
240.0719
 20
-1.4069
 30
0.0
 10
241.4092
 20
-1.4069
 30
0.0
 10
241.4092
 20
-1.4069
 30
0.0
  0
SPLINE
  5
17A
330
1F
100
AcDbEntity
  8
DEFPOINTS
370
    25
100
AcDbSpline
210
0.0
220
0.0
230
1.0
 70
    24
 71
     3
 72
     8
 73
     4
 74
     0
 42
0.0000000001
 43
0.0000000001
 40
0.0
 40
0.0
 40
0.0
 40
0.0
 40
1.0
 40
1.0
 40
1.0
 40
1.0
 10
242.0916
 20
-1.4069
 30
0.0
 10
242.0916
 20
-1.4069
 30
0.0
 10
243.4562
 20
-1.4069
 30
0.0
 10
243.4562
 20
-1.4069
 30
0.0
  0
SPLINE
  5
17B
330
1F
100
AcDbEntity
  8
DEFPOINTS
370
    25
100
AcDbSpline
210
0.0
220
0.0
230
1.0
 70
    24
 71
     3
 72
     8
 73
     4
 74
     0
 42
0.0000000001
 43
0.0000000001
 40
0.0
 40
0.0
 40
0.0
 40
0.0
 40
1.0
 40
1.0
 40
1.0
 40
1.0
 10
244.1386
 20
-1.4069
 30
0.0
 10
244.1386
 20
-1.4069
 30
0.0
 10
245.5032
 20
-1.4069
 30
0.0
 10
245.5032
 20
-1.4069
 30
0.0
  0
SPLINE
  5
17C
330
1F
100
AcDbEntity
  8
DEFPOINTS
370
    25
100
AcDbSpline
210
0.0
220
0.0
230
1.0
 70
    24
 71
     3
 72
     8
 73
     4
 74
     0
 42
0.0000000001
 43
0.0000000001
 40
0.0
 40
0.0
 40
0.0
 40
0.0
 40
1.0
 40
1.0
 40
1.0
 40
1.0
 10
246.1856
 20
-1.4069
 30
0.0
 10
246.1856
 20
-1.4069
 30
0.0
 10
247.523
 20
-1.4069
 30
0.0
 10
247.523
 20
-1.4069
 30
0.0
  0
SPLINE
  5
17D
330
1F
100
AcDbEntity
  8
DEFPOINTS
370
    25
100
AcDbSpline
210
0.0
220
0.0
230
1.0
 70
    24
 71
     3
 72
     8
 73
     4
 74
     0
 42
0.0000000001
 43
0.0000000001
 40
0.0
 40
0.0
 40
0.0
 40
0.0
 40
1.0
 40
1.0
 40
1.0
 40
1.0
 10
248.2052
 20
-1.4069
 30
0.0
 10
248.2052
 20
-1.4069
 30
0.0
 10
249.57
 20
-1.4069
 30
0.0
 10
249.57
 20
-1.4069
 30
0.0
  0
SPLINE
  5
17E
330
1F
100
AcDbEntity
  8
DEFPOINTS
370
    25
100
AcDbSpline
210
0.0
220
0.0
230
1.0
 70
    24
 71
     3
 72
     8
 73
     4
 74
     0
 42
0.0000000001
 43
0.0000000001
 40
0.0
 40
0.0
 40
0.0
 40
0.0
 40
1.0
 40
1.0
 40
1.0
 40
1.0
 10
250.2523
 20
-1.4069
 30
0.0
 10
250.2523
 20
-1.4069
 30
0.0
 10
251.617
 20
-1.4069
 30
0.0
 10
251.617
 20
-1.4069
 30
0.0
  0
SPLINE
  5
17F
330
1F
100
AcDbEntity
  8
DEFPOINTS
370
    25
100
AcDbSpline
210
0.0
220
0.0
230
1.0
 70
    24
 71
     3
 72
     8
 73
     4
 74
     0
 42
0.0000000001
 43
0.0000000001
 40
0.0
 40
0.0
 40
0.0
 40
0.0
 40
1.0
 40
1.0
 40
1.0
 40
1.0
 10
252.272
 20
-1.4069
 30
0.0
 10
252.272
 20
-1.4069
 30
0.0
 10
253.6367
 20
-1.4069
 30
0.0
 10
253.6367
 20
-1.4069
 30
0.0
  0
SPLINE
  5
180
330
1F
100
AcDbEntity
  8
DEFPOINTS
370
    25
100
AcDbSpline
210
0.0
220
0.0
230
1.0
 70
    24
 71
     3
 72
     8
 73
     4
 74
     0
 42
0.0000000001
 43
0.0000000001
 40
0.0
 40
0.0
 40
0.0
 40
0.0
 40
1.0
 40
1.0
 40
1.0
 40
1.0
 10
254.319
 20
-1.4069
 30
0.0
 10
254.319
 20
-1.4069
 30
0.0
 10
255.6837
 20
-1.4069
 30
0.0
 10
255.6837
 20
-1.4069
 30
0.0
  0
SPLINE
  5
181
330
1F
100
AcDbEntity
  8
DEFPOINTS
370
    25
100
AcDbSpline
210
0.0
220
0.0
230
1.0
 70
    24
 71
     3
 72
     8
 73
     4
 74
     0
 42
0.0000000001
 43
0.0000000001
 40
0.0
 40
0.0
 40
0.0
 40
0.0
 40
1.0
 40
1.0
 40
1.0
 40
1.0
 10
256.3661
 20
-1.4069
 30
0.0
 10
256.3661
 20
-1.4069
 30
0.0
 10
257.7033
 20
-1.4069
 30
0.0
 10
257.7033
 20
-1.4069
 30
0.0
  0
SPLINE
  5
182
330
1F
100
AcDbEntity
  8
DEFPOINTS
370
    25
100
AcDbSpline
210
0.0
220
0.0
230
1.0
 70
    24
 71
     3
 72
     8
 73
     4
 74
     0
 42
0.0000000001
 43
0.0000000001
 40
0.0
 40
0.0
 40
0.0
 40
0.0
 40
1.0
 40
1.0
 40
1.0
 40
1.0
 10
258.3857
 20
-1.4069
 30
0.0
 10
258.3857
 20
-1.4069
 30
0.0
 10
259.7503
 20
-1.4069
 30
0.0
 10
259.7503
 20
-1.4069
 30
0.0
  0
SPLINE
  5
183
330
1F
100
AcDbEntity
  8
DEFPOINTS
370
    25
100
AcDbSpline
210
0.0
220
0.0
230
1.0
 70
    24
 71
     3
 72
     8
 73
     4
 74
     0
 42
0.0000000001
 43
0.0000000001
 40
0.0
 40
0.0
 40
0.0
 40
0.0
 40
1.0
 40
1.0
 40
1.0
 40
1.0
 10
260.4327
 20
-1.4069
 30
0.0
 10
260.4327
 20
-1.4069
 30
0.0
 10
261.7973
 20
-1.4069
 30
0.0
 10
261.7973
 20
-1.4069
 30
0.0
  0
SPLINE
  5
184
330
1F
100
AcDbEntity
  8
DEFPOINTS
370
    25
100
AcDbSpline
210
0.0
220
0.0
230
1.0
 70
    24
 71
     3
 72
     8
 73
     4
 74
     0
 42
0.0000000001
 43
0.0000000001
 40
0.0
 40
0.0
 40
0.0
 40
0.0
 40
1.0
 40
1.0
 40
1.0
 40
1.0
 10
262.4797
 20
-1.4069
 30
0.0
 10
262.4797
 20
-1.4069
 30
0.0
 10
263.8171
 20
-1.4069
 30
0.0
 10
263.8171
 20
-1.4069
 30
0.0
  0
SPLINE
  5
185
330
1F
100
AcDbEntity
  8
DEFPOINTS
370
    25
100
AcDbSpline
210
0.0
220
0.0
230
1.0
 70
    24
 71
     3
 72
     8
 73
     4
 74
     0
 42
0.0000000001
 43
0.0000000001
 40
0.0
 40
0.0
 40
0.0
 40
0.0
 40
1.0
 40
1.0
 40
1.0
 40
1.0
 10
264.4994
 20
-1.4069
 30
0.0
 10
264.4994
 20
-1.4069
 30
0.0
 10
265.8641
 20
-1.4069
 30
0.0
 10
265.8641
 20
-1.4069
 30
0.0
  0
SPLINE
  5
186
330
1F
100
AcDbEntity
  8
DEFPOINTS
370
    25
100
AcDbSpline
210
0.0
220
0.0
230
1.0
 70
    24
 71
     3
 72
     8
 73
     4
 74
     0
 42
0.0000000001
 43
0.0000000001
 40
0.0
 40
0.0
 40
0.0
 40
0.0
 40
1.0
 40
1.0
 40
1.0
 40
1.0
 10
266.5464
 20
-1.4069
 30
0.0
 10
266.5464
 20
-1.4069
 30
0.0
 10
267.9111
 20
-1.4069
 30
0.0
 10
267.9111
 20
-1.4069
 30
0.0
  0
SPLINE
  5
187
330
1F
100
AcDbEntity
  8
DEFPOINTS
370
    25
100
AcDbSpline
210
0.0
220
0.0
230
1.0
 70
    24
 71
     3
 72
     8
 73
     4
 74
     0
 42
0.0000000001
 43
0.0000000001
 40
0.0
 40
0.0
 40
0.0
 40
0.0
 40
1.0
 40
1.0
 40
1.0
 40
1.0
 10
268.5662
 20
-1.4069
 30
0.0
 10
268.5662
 20
-1.4069
 30
0.0
 10
269.9308
 20
-1.4069
 30
0.0
 10
269.9308
 20
-1.4069
 30
0.0
  0
SPLINE
  5
188
330
1F
100
AcDbEntity
  8
DEFPOINTS
370
    25
100
AcDbSpline
210
0.0
220
0.0
230
1.0
 70
    24
 71
     3
 72
     8
 73
     4
 74
     0
 42
0.0000000001
 43
0.0000000001
 40
0.0
 40
0.0
 40
0.0
 40
0.0
 40
1.0
 40
1.0
 40
1.0
 40
1.0
 10
270.6132
 20
-1.4069
 30
0.0
 10
270.6132
 20
-1.4069
 30
0.0
 10
271.9778
 20
-1.4069
 30
0.0
 10
271.9778
 20
-1.4069
 30
0.0
  0
SPLINE
  5
189
330
1F
100
AcDbEntity
  8
DEFPOINTS
370
    25
100
AcDbSpline
210
0.0
220
0.0
230
1.0
 70
    24
 71
     3
 72
     8
 73
     4
 74
     0
 42
0.0000000001
 43
0.0000000001
 40
0.0
 40
0.0
 40
0.0
 40
0.0
 40
1.0
 40
1.0
 40
1.0
 40
1.0
 10
272.6602
 20
-1.4069
 30
0.0
 10
272.6602
 20
-1.4069
 30
0.0
 10
273.9975
 20
-1.4069
 30
0.0
 10
273.9975
 20
-1.4069
 30
0.0
  0
SPLINE
  5
18A
330
1F
100
AcDbEntity
  8
DEFPOINTS
370
    25
100
AcDbSpline
210
0.0
220
0.0
230
1.0
 70
    24
 71
     3
 72
     8
 73
     4
 74
     0
 42
0.0000000001
 43
0.0000000001
 40
0.0
 40
0.0
 40
0.0
 40
0.0
 40
1.0
 40
1.0
 40
1.0
 40
1.0
 10
274.6799
 20
-1.4069
 30
0.0
 10
274.6799
 20
-1.4069
 30
0.0
 10
276.0445
 20
-1.4069
 30
0.0
 10
276.0445
 20
-1.4069
 30
0.0
  0
SPLINE
  5
18B
330
1F
100
AcDbEntity
  8
DEFPOINTS
370
    25
100
AcDbSpline
210
0.0
220
0.0
230
1.0
 70
    24
 71
     3
 72
     8
 73
     4
 74
     0
 42
0.0000000001
 43
0.0000000001
 40
0.0
 40
0.0
 40
0.0
 40
0.0
 40
1.0
 40
1.0
 40
1.0
 40
1.0
 10
276.7269
 20
-1.4069
 30
0.0
 10
276.7269
 20
-1.4069
 30
0.0
 10
278.0915
 20
-1.4069
 30
0.0
 10
278.0915
 20
-1.4069
 30
0.0
  0
SPLINE
  5
18C
330
1F
100
AcDbEntity
  8
DEFPOINTS
370
    25
100
AcDbSpline
210
0.0
220
0.0
230
1.0
 70
    24
 71
     3
 72
     8
 73
     4
 74
     0
 42
0.0000000001
 43
0.0000000001
 40
0.0
 40
0.0
 40
0.0
 40
0.0
 40
1.0
 40
1.0
 40
1.0
 40
1.0
 10
278.7465
 20
-1.4069
 30
0.0
 10
278.7465
 20
-1.4069
 30
0.0
 10
280.1113
 20
-1.4069
 30
0.0
 10
280.1113
 20
-1.4069
 30
0.0
  0
SPLINE
  5
18D
330
1F
100
AcDbEntity
  8
DEFPOINTS
370
    25
100
AcDbSpline
210
0.0
220
0.0
230
1.0
 70
    24
 71
     3
 72
     8
 73
     4
 74
     0
 42
0.0000000001
 43
0.0000000001
 40
0.0
 40
0.0
 40
0.0
 40
0.0
 40
1.0
 40
1.0
 40
1.0
 40
1.0
 10
280.7935
 20
-1.4069
 30
0.0
 10
280.7935
 20
-1.4069
 30
0.0
 10
282.1583
 20
-1.4069
 30
0.0
 10
282.1583
 20
-1.4069
 30
0.0
  0
SPLINE
  5
18E
330
1F
100
AcDbEntity
  8
DEFPOINTS
370
    25
100
AcDbSpline
210
0.0
220
0.0
230
1.0
 70
    24
 71
     3
 72
     8
 73
     4
 74
     0
 42
0.0000000001
 43
0.0000000001
 40
0.0
 40
0.0
 40
0.0
 40
0.0
 40
1.0
 40
1.0
 40
1.0
 40
1.0
 10
282.8405
 20
-1.4069
 30
0.0
 10
282.8405
 20
-1.4069
 30
0.0
 10
284.1779
 20
-1.4069
 30
0.0
 10
284.1779
 20
-1.4069
 30
0.0
  0
SPLINE
  5
18F
330
1F
100
AcDbEntity
  8
DEFPOINTS
370
    25
100
AcDbSpline
210
0.0
220
0.0
230
1.0
 70
    24
 71
     3
 72
     8
 73
     4
 74
     0
 42
0.0000000001
 43
0.0000000001
 40
0.0
 40
0.0
 40
0.0
 40
0.0
 40
1.0
 40
1.0
 40
1.0
 40
1.0
 10
284.8603
 20
-1.4069
 30
0.0
 10
284.8603
 20
-1.4069
 30
0.0
 10
286.225
 20
-1.4069
 30
0.0
 10
286.225
 20
-1.4069
 30
0.0
  0
SPLINE
  5
190
330
1F
100
AcDbEntity
  8
DEFPOINTS
370
    25
100
AcDbSpline
210
0.0
220
0.0
230
1.0
 70
    24
 71
     3
 72
     8
 73
     4
 74
     0
 42
0.0000000001
 43
0.0000000001
 40
0.0
 40
0.0
 40
0.0
 40
0.0
 40
1.0
 40
1.0
 40
1.0
 40
1.0
 10
286.9073
 20
-1.4069
 30
0.0
 10
286.9073
 20
-1.4069
 30
0.0
 10
287.8899
 20
-1.4069
 30
0.0
 10
287.8899
 20
-1.4069
 30
0.0
  0
SPLINE
  5
191
330
1F
100
AcDbEntity
  8
DEFPOINTS
370
    25
100
AcDbSpline
210
0.0
220
0.0
230
1.0
 70
     8
 71
     3
 72
     8
 73
     4
 74
     0
 42
0.0000000001
 43
0.0000000001
 40
0.0
 40
0.0
 40
0.0
 40
0.0
 40
1.0
 40
1.0
 40
1.0
 40
1.0
 10
158.4375
 20
-0.8867
 30
0.0
 10
156.9358
 20
-0.9096999999999999
 30
0.0
 10
155.7245
 20
-2.0436
 30
0.0
 10
155.7354
 20
-3.4874
 30
0.0
  0
SPLINE
  5
192
330
1F
100
AcDbEntity
  8
DEFPOINTS
370
    25
100
AcDbSpline
210
0.0
220
0.0
230
1.0
 70
     8
 71
     3
 72
    12
 73
     8
 74
     0
 42
0.0000000001
 43
0.0000000001
 40
0.0
 40
0.0
 40
0.0
 40
0.0
 40
0.5
 40
0.5
 40
0.5
 40
0.5
 40
1.0
 40
1.0
 40
1.0
 40
1.0
 10
158.9833
 20
-1.4069
 30
0.0
 10
158.9833
 20
-1.4069
 30
0.0
 10
158.4647
 20
-1.4588
 30
0.0
 10
158.4647
 20
-1.4588
 30
0.0
 10
158.4647
 20
-1.4588
 30
0.0
 10
158.4647
 20
-1.4588
 30
0.0
 10
158.219
 20
-1.536799999999999
 30
0.0
 10
158.219
 20
-1.536799999999999
 30
0.0
  0
SPLINE
  5
193
330
1F
100
AcDbEntity
  8
DEFPOINTS
370
    25
100
AcDbSpline
210
0.0
220
0.0
230
1.0
 70
     8
 71
     3
 72
    20
 73
    16
 74
     0
 42
0.0000000001
 43
0.0000000001
 40
0.0
 40
0.0
 40
0.0
 40
0.0
 40
0.25
 40
0.25
 40
0.25
 40
0.25
 40
0.5
 40
0.5
 40
0.5
 40
0.5
 40
0.75
 40
0.75
 40
0.75
 40
0.75
 40
1.0
 40
1.0
 40
1.0
 40
1.0
 10
157.6187
 20
-1.770899999999999
 30
0.0
 10
157.6187
 20
-1.770899999999999
 30
0.0
 10
157.4821
 20
-1.8489
 30
0.0
 10
157.4821
 20
-1.8489
 30
0.0
 10
157.4821
 20
-1.8489
 30
0.0
 10
157.4821
 20
-1.8489
 30
0.0
 10
157.0727
 20
-2.161
 30
0.0
 10
157.0727
 20
-2.161
 30
0.0
 10
157.0727
 20
-2.161
 30
0.0
 10
157.0727
 20
-2.161
 30
0.0
 10
156.718
 20
-2.5512
 30
0.0
 10
156.718
 20
-2.5512
 30
0.0
 10
156.718
 20
-2.5512
 30
0.0
 10
156.718
 20
-2.5512
 30
0.0
 10
156.6633
 20
-2.681299999999999
 30
0.0
 10
156.6633
 20
-2.681299999999999
 30
0.0
  0
SPLINE
  5
194
330
1F
100
AcDbEntity
  8
DEFPOINTS
370
    25
100
AcDbSpline
210
0.0
220
0.0
230
1.0
 70
     8
 71
     3
 72
    12
 73
     8
 74
     0
 42
0.0000000001
 43
0.0000000001
 40
0.0
 40
0.0
 40
0.0
 40
0.0
 40
0.5
 40
0.5
 40
0.5
 40
0.5
 40
1.0
 40
1.0
 40
1.0
 40
1.0
 10
156.3905
 20
-3.279399999999999
 30
0.0
 10
156.3905
 20
-3.279399999999999
 30
0.0
 10
156.3358
 20
-3.4874
 30
0.0
 10
156.3358
 20
-3.4874
 30
0.0
 10
156.3358
 20
-3.4874
 30
0.0
 10
156.3358
 20
-3.4874
 30
0.0
 10
156.2812
 20
-4.007699999999999
 30
0.0
 10
156.2812
 20
-4.007699999999999
 30
0.0
  0
SPLINE
  5
195
330
1F
100
AcDbEntity
  8
DEFPOINTS
370
    25
100
AcDbSpline
210
0.0
220
0.0
230
1.0
 70
     8
 71
     3
 72
    12
 73
     8
 74
     0
 42
0.0000000001
 43
0.0000000001
 40
0.0
 40
0.0
 40
0.0
 40
0.0
 40
0.5
 40
0.5
 40
0.5
 40
0.5
 40
1.0
 40
1.0
 40
1.0
 40
1.0
 10
159.5291
 20
-1.926999999999999
 30
0.0
 10
159.5291
 20
-1.926999999999999
 30
0.0
 10
159.0106
 20
-1.9791
 30
0.0
 10
159.0106
 20
-1.9791
 30
0.0
 10
159.0106
 20
-1.9791
 30
0.0
 10
159.0106
 20
-1.9791
 30
0.0
 10
158.765
 20
-2.031
 30
0.0
 10
158.765
 20
-2.031
 30
0.0
  0
SPLINE
  5
196
330
1F
100
AcDbEntity
  8
DEFPOINTS
370
    25
100
AcDbSpline
210
0.0
220
0.0
230
1.0
 70
     8
 71
     3
 72
    20
 73
    16
 74
     0
 42
0.0000000001
 43
0.0000000001
 40
0.0
 40
0.0
 40
0.0
 40
0.0
 40
0.25
 40
0.25
 40
0.25
 40
0.25
 40
0.5
 40
0.5
 40
0.5
 40
0.5
 40
0.75
 40
0.75
 40
0.75
 40
0.75
 40
1.0
 40
1.0
 40
1.0
 40
1.0
 10
158.1371
 20
-2.291199999999999
 30
0.0
 10
158.1371
 20
-2.291199999999999
 30
0.0
 10
158.0281
 20
-2.3692
 30
0.0
 10
158.0281
 20
-2.3692
 30
0.0
 10
158.0281
 20
-2.3692
 30
0.0
 10
158.0281
 20
-2.3692
 30
0.0
 10
157.6187
 20
-2.681299999999999
 30
0.0
 10
157.6187
 20
-2.681299999999999
 30
0.0
 10
157.6187
 20
-2.681299999999999
 30
0.0
 10
157.6187
 20
-2.681299999999999
 30
0.0
 10
157.2638
 20
-3.0714
 30
0.0
 10
157.2638
 20
-3.0714
 30
0.0
 10
157.2638
 20
-3.0714
 30
0.0
 10
157.2638
 20
-3.0714
 30
0.0
 10
157.2093
 20
-3.2014
 30
0.0
 10
157.2093
 20
-3.2014
 30
0.0
  0
SPLINE
  5
197
330
1F
100
AcDbEntity
  8
DEFPOINTS
370
    25
100
AcDbSpline
210
0.0
220
0.0
230
1.0
 70
     8
 71
     3
 72
    12
 73
     8
 74
     0
 42
0.0000000001
 43
0.0000000001
 40
0.0
 40
0.0
 40
0.0
 40
0.0
 40
0.5
 40
0.5
 40
0.5
 40
0.5
 40
1.0
 40
1.0
 40
1.0
 40
1.0
 10
156.9363
 20
-3.7995
 30
0.0
 10
156.9363
 20
-3.7995
 30
0.0
 10
156.8544
 20
-4.007699999999999
 30
0.0
 10
156.8544
 20
-4.007699999999999
 30
0.0
 10
156.8544
 20
-4.007699999999999
 30
0.0
 10
156.8544
 20
-4.007699999999999
 30
0.0
 10
156.8271
 20
-4.501699999999999
 30
0.0
 10
156.8271
 20
-4.501699999999999
 30
0.0
  0
SPLINE
  5
198
330
1F
100
AcDbEntity
  8
DEFPOINTS
370
    25
100
AcDbSpline
210
0.0
220
0.0
230
1.0
 70
     8
 71
     3
 72
     8
 73
     4
 74
     0
 42
0.0000000001
 43
0.0000000001
 40
0.0
 40
0.0
 40
0.0
 40
0.0
 40
1.0
 40
1.0
 40
1.0
 40
1.0
 10
291.1378
 20
-3.4874
 30
0.0
 10
291.0982
 20
-2.024999999999999
 30
0.0
 10
289.9819
 20
-0.9256999999999999
 30
0.0
 10
288.4357
 20
-0.8867
 30
0.0
  0
SPLINE
  5
199
330
1F
100
AcDbEntity
  8
DEFPOINTS
370
    25
100
AcDbSpline
210
0.0
220
0.0
230
1.0
 70
     8
 71
     3
 72
    12
 73
     8
 74
     0
 42
0.0000000001
 43
0.0000000001
 40
0.0
 40
0.0
 40
0.0
 40
0.0
 40
0.5
 40
0.5
 40
0.5
 40
0.5
 40
1.0
 40
1.0
 40
1.0
 40
1.0
 10
290.5919
 20
-4.007699999999999
 30
0.0
 10
290.5919
 20
-4.007699999999999
 30
0.0
 10
290.5373
 20
-3.4874
 30
0.0
 10
290.5373
 20
-3.4874
 30
0.0
 10
290.5373
 20
-3.4874
 30
0.0
 10
290.5373
 20
-3.4874
 30
0.0
 10
290.4827
 20
-3.279399999999999
 30
0.0
 10
290.4827
 20
-3.279399999999999
 30
0.0
  0
SPLINE
  5
19A
330
1F
100
AcDbEntity
  8
DEFPOINTS
370
    25
100
AcDbSpline
210
0.0
220
0.0
230
1.0
 70
     8
 71
     3
 72
    20
 73
    16
 74
     0
 42
0.0000000001
 43
0.0000000001
 40
0.0
 40
0.0
 40
0.0
 40
0.0
 40
0.25
 40
0.25
 40
0.25
 40
0.25
 40
0.5
 40
0.5
 40
0.5
 40
0.5
 40
0.75
 40
0.75
 40
0.75
 40
0.75
 40
1.0
 40
1.0
 40
1.0
 40
1.0
 10
290.2097
 20
-2.681299999999999
 30
0.0
 10
290.2097
 20
-2.681299999999999
 30
0.0
 10
290.1279
 20
-2.5512
 30
0.0
 10
290.1279
 20
-2.5512
 30
0.0
 10
290.1279
 20
-2.5512
 30
0.0
 10
290.1279
 20
-2.5512
 30
0.0
 10
289.8003
 20
-2.161
 30
0.0
 10
289.8003
 20
-2.161
 30
0.0
 10
289.8003
 20
-2.161
 30
0.0
 10
289.8003
 20
-2.161
 30
0.0
 10
289.3909
 20
-1.8489
 30
0.0
 10
289.3909
 20
-1.8489
 30
0.0
 10
289.3909
 20
-1.8489
 30
0.0
 10
289.3909
 20
-1.8489
 30
0.0
 10
289.2545
 20
-1.770899999999999
 30
0.0
 10
289.2545
 20
-1.770899999999999
 30
0.0
  0
SPLINE
  5
19B
330
1F
100
AcDbEntity
  8
DEFPOINTS
370
    25
100
AcDbSpline
210
0.0
220
0.0
230
1.0
 70
     8
 71
     3
 72
    12
 73
     8
 74
     0
 42
0.0000000001
 43
0.0000000001
 40
0.0
 40
0.0
 40
0.0
 40
0.0
 40
0.5
 40
0.5
 40
0.5
 40
0.5
 40
1.0
 40
1.0
 40
1.0
 40
1.0
 10
288.6268
 20
-1.536799999999999
 30
0.0
 10
288.6268
 20
-1.536799999999999
 30
0.0
 10
288.4084
 20
-1.4588
 30
0.0
 10
288.4084
 20
-1.4588
 30
0.0
 10
288.4084
 20
-1.4588
 30
0.0
 10
288.4084
 20
-1.4588
 30
0.0
 10
287.8899
 20
-1.4069
 30
0.0
 10
287.8899
 20
-1.4069
 30
0.0
  0
SPLINE
  5
19C
330
1F
100
AcDbEntity
  8
DEFPOINTS
370
    25
100
AcDbSpline
210
0.0
220
0.0
230
1.0
 70
     8
 71
     3
 72
    12
 73
     8
 74
     0
 42
0.0000000001
 43
0.0000000001
 40
0.0
 40
0.0
 40
0.0
 40
0.0
 40
0.5
 40
0.5
 40
0.5
 40
0.5
 40
1.0
 40
1.0
 40
1.0
 40
1.0
 10
290.046
 20
-4.501699999999999
 30
0.0
 10
290.046
 20
-4.501699999999999
 30
0.0
 10
289.9914
 20
-4.007699999999999
 30
0.0
 10
289.9914
 20
-4.007699999999999
 30
0.0
 10
289.9914
 20
-4.007699999999999
 30
0.0
 10
289.9914
 20
-4.007699999999999
 30
0.0
 10
289.9369
 20
-3.7995
 30
0.0
 10
289.9369
 20
-3.7995
 30
0.0
  0
SPLINE
  5
19D
330
1F
100
AcDbEntity
  8
DEFPOINTS
370
    25
100
AcDbSpline
210
0.0
220
0.0
230
1.0
 70
     8
 71
     3
 72
    20
 73
    16
 74
     0
 42
0.0000000001
 43
0.0000000001
 40
0.0
 40
0.0
 40
0.0
 40
0.0
 40
0.25
 40
0.25
 40
0.25
 40
0.25
 40
0.5
 40
0.5
 40
0.5
 40
0.5
 40
0.75
 40
0.75
 40
0.75
 40
0.75
 40
1.0
 40
1.0
 40
1.0
 40
1.0
 10
289.6639
 20
-3.2014
 30
0.0
 10
289.6639
 20
-3.2014
 30
0.0
 10
289.582
 20
-3.0714
 30
0.0
 10
289.582
 20
-3.0714
 30
0.0
 10
289.582
 20
-3.0714
 30
0.0
 10
289.582
 20
-3.0714
 30
0.0
 10
289.2545
 20
-2.681299999999999
 30
0.0
 10
289.2545
 20
-2.681299999999999
 30
0.0
 10
289.2545
 20
-2.681299999999999
 30
0.0
 10
289.2545
 20
-2.681299999999999
 30
0.0
 10
288.8451
 20
-2.3692
 30
0.0
 10
288.8451
 20
-2.3692
 30
0.0
 10
288.8451
 20
-2.3692
 30
0.0
 10
288.8451
 20
-2.3692
 30
0.0
 10
288.7087
 20
-2.291199999999999
 30
0.0
 10
288.7087
 20
-2.291199999999999
 30
0.0
  0
SPLINE
  5
19E
330
1F
100
AcDbEntity
  8
DEFPOINTS
370
    25
100
AcDbSpline
210
0.0
220
0.0
230
1.0
 70
     8
 71
     3
 72
    12
 73
     8
 74
     0
 42
0.0000000001
 43
0.0000000001
 40
0.0
 40
0.0
 40
0.0
 40
0.0
 40
0.5
 40
0.5
 40
0.5
 40
0.5
 40
1.0
 40
1.0
 40
1.0
 40
1.0
 10
288.1082
 20
-2.031
 30
0.0
 10
288.1082
 20
-2.031
 30
0.0
 10
287.8626
 20
-1.9791
 30
0.0
 10
287.8626
 20
-1.9791
 30
0.0
 10
287.8626
 20
-1.9791
 30
0.0
 10
287.8626
 20
-1.9791
 30
0.0
 10
287.3439
 20
-1.926999999999999
 30
0.0
 10
287.3439
 20
-1.926999999999999
 30
0.0
  0
SPLINE
  5
19F
330
1F
100
AcDbEntity
  8
DEFPOINTS
370
    25
100
AcDbSpline
210
0.0
220
0.0
230
1.0
 70
    24
 71
     3
 72
     8
 73
     4
 74
     0
 42
0.0000000001
 43
0.0000000001
 40
0.0
 40
0.0
 40
0.0
 40
0.0
 40
1.0
 40
1.0
 40
1.0
 40
1.0
 10
155.7354
 20
-80.7566
 30
0.0
 10
155.7354
 20
-80.7566
 30
0.0
 10
156.2812
 20
-80.7566
 30
0.0
 10
156.2812
 20
-80.7566
 30
0.0
  0
SPLINE
  5
1A0
330
1F
100
AcDbEntity
  8
DEFPOINTS
370
    25
100
AcDbSpline
210
0.0
220
0.0
230
1.0
 70
    24
 71
     3
 72
     8
 73
     4
 74
     0
 42
0.0000000001
 43
0.0000000001
 40
0.0
 40
0.0
 40
0.0
 40
0.0
 40
1.0
 40
1.0
 40
1.0
 40
1.0
 10
290.5919
 20
-80.7566
 30
0.0
 10
290.5919
 20
-80.7566
 30
0.0
 10
291.1378
 20
-80.7566
 30
0.0
 10
291.1378
 20
-80.7566
 30
0.0
  0
SPLINE
  5
1A1
330
1F
100
AcDbEntity
  8
DEFPOINTS
370
    25
100
AcDbSpline
210
0.0
220
0.0
230
1.0
 70
    24
 71
     3
 72
     8
 73
     4
 74
     0
 42
0.0000000001
 43
0.0000000001
 40
0.0
 40
0.0
 40
0.0
 40
0.0
 40
1.0
 40
1.0
 40
1.0
 40
1.0
 10
305.6579
 20
8.9183
 30
0.0
 10
305.6579
 20
8.9183
 30
0.0
 10
293.0755
 20
-0.3145
 30
0.0
 10
293.0755
 20
-0.3145
 30
0.0
  0
SPLINE
  5
1A2
330
1F
100
AcDbEntity
  8
DEFPOINTS
370
    25
100
AcDbSpline
210
0.0
220
0.0
230
1.0
 70
     8
 71
     3
 72
    28
 73
    24
 74
     0
 42
0.0000000001
 43
0.0000000001
 40
0.0
 40
0.0
 40
0.0
 40
0.0
 40
0.1666666666666667
 40
0.1666666666666667
 40
0.1666666666666667
 40
0.1666666666666667
 40
0.3333333333333333
 40
0.3333333333333333
 40
0.3333333333333333
 40
0.3333333333333333
 40
0.5
 40
0.5
 40
0.5
 40
0.5
 40
0.6666666666666666
 40
0.6666666666666666
 40
0.6666666666666666
 40
0.6666666666666666
 40
0.8333333333333332
 40
0.8333333333333332
 40
0.8333333333333332
 40
0.8333333333333332
 40
1.0
 40
1.0
 40
1.0
 40
1.0
 10
296.7056
 20
2.572299999999999
 30
0.0
 10
296.7056
 20
2.572299999999999
 30
0.0
 10
293.949
 20
5.9793
 30
0.0
 10
293.949
 20
5.9793
 30
0.0
 10
293.949
 20
5.9793
 30
0.0
 10
293.949
 20
5.9793
 30
0.0
 10
295.4774
 20
7.097699999999999
 30
0.0
 10
295.4774
 20
7.097699999999999
 30
0.0
 10
295.4774
 20
7.097699999999999
 30
0.0
 10
295.4774
 20
7.097699999999999
 30
0.0
 10
296.1324
 20
7.305699999999999
 30
0.0
 10
296.1324
 20
7.305699999999999
 30
0.0
 10
296.1324
 20
7.305699999999999
 30
0.0
 10
296.1324
 20
7.305699999999999
 30
0.0
 10
296.4326
 20
7.279799999999999
 30
0.0
 10
296.4326
 20
7.279799999999999
 30
0.0
 10
296.4326
 20
7.279799999999999
 30
0.0
 10
296.4326
 20
7.279799999999999
 30
0.0
 10
296.8694
 20
7.0716
 30
0.0
 10
296.8694
 20
7.0716
 30
0.0
 10
296.8694
 20
7.0716
 30
0.0
 10
298.0616
 20
5.8689
 30
0.0
 10
295.991
 20
4.9442
 30
0.0
 10
295.2591
 20
4.340799999999999
 30
0.0
  0
SPLINE
  5
1A3
330
1F
100
AcDbEntity
  8
DEFPOINTS
370
    25
100
AcDbSpline
210
0.0
220
0.0
230
1.0
 70
    24
 71
     3
 72
     8
 73
     4
 74
     0
 42
0.0000000001
 43
0.0000000001
 40
0.0
 40
0.0
 40
0.0
 40
0.0
 40
1.0
 40
1.0
 40
1.0
 40
1.0
 10
296.46
 20
5.2251
 30
0.0
 10
296.46
 20
5.2251
 30
0.0
 10
299.0801
 20
4.314899999999999
 30
0.0
 10
299.0801
 20
4.314899999999999
 30
0.0
  0
SPLINE
  5
1A4
330
1F
100
AcDbEntity
  8
DEFPOINTS
370
    25
100
AcDbSpline
210
0.0
220
0.0
230
1.0
 70
     8
 71
     3
 72
    16
 73
    12
 74
     0
 42
0.0000000001
 43
0.0000000001
 40
0.0
 40
0.0
 40
0.0
 40
0.0
 40
0.3333333333333333
 40
0.3333333333333333
 40
0.3333333333333333
 40
0.3333333333333333
 40
0.6666666666666666
 40
0.6666666666666666
 40
0.6666666666666666
 40
0.6666666666666666
 40
1.0
 40
1.0
 40
1.0
 40
1.0
 10
298.0702
 20
7.956
 30
0.0
 10
298.0702
 20
7.956
 30
0.0
 10
298.2613
 20
8.372099999999999
 30
0.0
 10
298.2613
 20
8.372099999999999
 30
0.0
 10
298.2613
 20
8.372099999999999
 30
0.0
 10
298.2613
 20
8.372099999999999
 30
0.0
 10
298.3977
 20
9.230399999999999
 30
0.0
 10
298.3977
 20
9.230399999999999
 30
0.0
 10
298.3977
 20
9.230399999999999
 30
0.0
 10
298.3977
 20
9.230399999999999
 30
0.0
 10
301.1545
 20
5.823299999999999
 30
0.0
 10
301.1545
 20
5.823299999999999
 30
0.0
  0
SPLINE
  5
1A5
330
1F
100
AcDbEntity
  8
DEFPOINTS
370
    25
100
AcDbSpline
210
0.0
220
0.0
230
1.0
 70
     8
 71
     3
 72
    68
 73
    64
 74
     0
 42
0.0000000001
 43
0.0000000001
 40
0.0
 40
0.0
 40
0.0
 40
0.0
 40
0.0625
 40
0.0625
 40
0.0625
 40
0.0625
 40
0.125
 40
0.125
 40
0.125
 40
0.125
 40
0.1875
 40
0.1875
 40
0.1875
 40
0.1875
 40
0.25
 40
0.25
 40
0.25
 40
0.25
 40
0.3125
 40
0.3125
 40
0.3125
 40
0.3125
 40
0.375
 40
0.375
 40
0.375
 40
0.375
 40
0.4375
 40
0.4375
 40
0.4375
 40
0.4375
 40
0.5
 40
0.5
 40
0.5
 40
0.5
 40
0.5625
 40
0.5625
 40
0.5625
 40
0.5625
 40
0.625
 40
0.625
 40
0.625
 40
0.625
 40
0.6875
 40
0.6875
 40
0.6875
 40
0.6875
 40
0.75
 40
0.75
 40
0.75
 40
0.75
 40
0.8125
 40
0.8125
 40
0.8125
 40
0.8125
 40
0.875
 40
0.875
 40
0.875
 40
0.875
 40
0.9375
 40
0.9375
 40
0.9375
 40
0.9375
 40
1.0
 40
1.0
 40
1.0
 40
1.0
 10
302.328
 20
12.1172
 30
0.0
 10
302.328
 20
12.1172
 30
0.0
 10
300.6085
 20
10.8689
 30
0.0
 10
300.6085
 20
10.8689
 30
0.0
 10
300.6085
 20
10.8689
 30
0.0
 10
300.6085
 20
10.8689
 30
0.0
 10
301.6184
 20
9.256299999999999
 30
0.0
 10
301.6184
 20
9.256299999999999
 30
0.0
 10
301.6184
 20
9.256299999999999
 30
0.0
 10
301.6184
 20
9.256299999999999
 30
0.0
 10
301.6457
 20
9.5684
 30
0.0
 10
301.6457
 20
9.5684
 30
0.0
 10
301.6457
 20
9.5684
 30
0.0
 10
301.6457
 20
9.5684
 30
0.0
 10
302.0278
 20
10.0886
 30
0.0
 10
302.0278
 20
10.0886
 30
0.0
 10
302.0278
 20
10.0886
 30
0.0
 10
302.0278
 20
10.0886
 30
0.0
 10
302.5464
 20
10.4787
 30
0.0
 10
302.5464
 20
10.4787
 30
0.0
 10
302.5464
 20
10.4787
 30
0.0
 10
302.5464
 20
10.4787
 30
0.0
 10
303.2015
 20
10.6868
 30
0.0
 10
303.2015
 20
10.6868
 30
0.0
 10
303.2015
 20
10.6868
 30
0.0
 10
303.2015
 20
10.6868
 30
0.0
 10
303.8018
 20
10.6087
 30
0.0
 10
303.8018
 20
10.6087
 30
0.0
 10
303.8018
 20
10.6087
 30
0.0
 10
303.8018
 20
10.6087
 30
0.0
 10
304.375
 20
10.2447
 30
0.0
 10
304.375
 20
10.2447
 30
0.0
 10
304.375
 20
10.2447
 30
0.0
 10
304.375
 20
10.2447
 30
0.0
 10
304.6206
 20
9.906499999999999
 30
0.0
 10
304.6206
 20
9.906499999999999
 30
0.0
 10
304.6206
 20
9.906499999999999
 30
0.0
 10
304.6206
 20
9.906499999999999
 30
0.0
 10
304.8391
 20
9.3084
 30
0.0
 10
304.8391
 20
9.3084
 30
0.0
 10
304.8391
 20
9.3084
 30
0.0
 10
304.8391
 20
9.3084
 30
0.0
 10
304.7844
 20
8.7362
 30
0.0
 10
304.7844
 20
8.7362
 30
0.0
 10
304.7844
 20
8.7362
 30
0.0
 10
304.7844
 20
8.7362
 30
0.0
 10
304.4023
 20
8.189999999999999
 30
0.0
 10
304.4023
 20
8.189999999999999
 30
0.0
 10
304.4023
 20
8.189999999999999
 30
0.0
 10
304.4023
 20
8.189999999999999
 30
0.0
 10
303.8837
 20
7.826
 30
0.0
 10
303.8837
 20
7.826
 30
0.0
 10
303.8837
 20
7.826
 30
0.0
 10
303.8837
 20
7.826
 30
0.0
 10
303.2287
 20
7.591899999999999
 30
0.0
 10
303.2287
 20
7.591899999999999
 30
0.0
 10
303.2287
 20
7.591899999999999
 30
0.0
 10
303.2287
 20
7.591899999999999
 30
0.0
 10
302.9285
 20
7.6439
 30
0.0
 10
302.9285
 20
7.6439
 30
0.0
 10
302.9285
 20
7.6439
 30
0.0
 10
302.9285
 20
7.6439
 30
0.0
 10
302.4918
 20
7.851899999999999
 30
0.0
 10
302.4918
 20
7.851899999999999
 30
0.0
  0
SPLINE
  5
1A6
330
1F
100
AcDbEntity
  8
DEFPOINTS
100
AcDbSpline
210
0.0
220
0.0
230
1.0
 70
    11
 71
     3
 72
    16
 73
    12
 74
     0
 42
0.0000000001
 43
0.0000000001
 40
0.0
 40
0.0
 40
0.0
 40
0.0
 40
0.3333333333333333
 40
0.3333333333333333
 40
0.3333333333333333
 40
0.3333333333333333
 40
0.6666666666666666
 40
0.6666666666666666
 40
0.6666666666666666
 40
0.6666666666666666
 40
1.0
 40
1.0
 40
1.0
 40
1.0
 10
292.6116
 20
0.2577
 30
0.0
 10
292.6116
 20
0.2577
 30
0.0
 10
293.5396
 20
-0.8867
 30
0.0
 10
293.5396
 20
-0.8867
 30
0.0
 10
293.5396
 20
-0.8867
 30
0.0
 10
293.5396
 20
-0.8867
 30
0.0
 10
289.5002
 20
-2.9413
 30
0.0
 10
289.5002
 20
-2.9413
 30
0.0
 10
289.5002
 20
-2.9413
 30
0.0
 10
289.5002
 20
-2.9413
 30
0.0
 10
292.6116
 20
0.2577
 30
0.0
 10
292.6116
 20
0.2577
 30
0.0
  0
SPLINE
  5
1A7
330
1F
100
AcDbEntity
  8
DEFPOINTS
370
    25
100
AcDbSpline
210
0.0
220
0.0
230
1.0
 70
    24
 71
     3
 72
     8
 73
     4
 74
     0
 42
0.0000000001
 43
0.0000000001
 40
0.0
 40
0.0
 40
0.0
 40
0.0
 40
1.0
 40
1.0
 40
1.0
 40
1.0
 10
142.6073
 20
10.5047
 30
0.0
 10
142.6073
 20
10.5047
 30
0.0
 10
154.2342
 20
0.1797
 30
0.0
 10
154.2342
 20
0.1797
 30
0.0
  0
SPLINE
  5
1A8
330
1F
100
AcDbEntity
  8
DEFPOINTS
370
    25
100
AcDbSpline
210
0.0
220
0.0
230
1.0
 70
     8
 71
     3
 72
    28
 73
    24
 74
     0
 42
0.0000000001
 43
0.0000000001
 40
0.0
 40
0.0
 40
0.0
 40
0.0
 40
0.1666666666666667
 40
0.1666666666666667
 40
0.1666666666666667
 40
0.1666666666666667
 40
0.3333333333333333
 40
0.3333333333333333
 40
0.3333333333333333
 40
0.3333333333333333
 40
0.5
 40
0.5
 40
0.5
 40
0.5
 40
0.6666666666666666
 40
0.6666666666666666
 40
0.6666666666666666
 40
0.6666666666666666
 40
0.8333333333333332
 40
0.8333333333333332
 40
0.8333333333333332
 40
0.8333333333333332
 40
1.0
 40
1.0
 40
1.0
 40
1.0
 10
142.8802
 20
10.5047
 30
0.0
 10
142.8802
 20
10.5047
 30
0.0
 10
145.9643
 20
13.6777
 30
0.0
 10
145.9643
 20
13.6777
 30
0.0
 10
145.9643
 20
13.6777
 30
0.0
 10
145.9643
 20
13.6777
 30
0.0
 10
147.3836
 20
12.4033
 30
0.0
 10
147.3836
 20
12.4033
 30
0.0
 10
147.3836
 20
12.4033
 30
0.0
 10
147.3836
 20
12.4033
 30
0.0
 10
147.7112
 20
11.8311
 30
0.0
 10
147.7112
 20
11.8311
 30
0.0
 10
147.7112
 20
11.8311
 30
0.0
 10
147.7112
 20
11.8311
 30
0.0
 10
147.7112
 20
11.545
 30
0.0
 10
147.7112
 20
11.545
 30
0.0
 10
147.7112
 20
11.545
 30
0.0
 10
147.7112
 20
11.545
 30
0.0
 10
147.5746
 20
11.1029
 30
0.0
 10
147.5746
 20
11.1029
 30
0.0
 10
147.5746
 20
11.1029
 30
0.0
 10
146.5234
 20
9.844599999999999
 30
0.0
 10
145.1929
 20
11.4545
 30
0.0
 10
144.4905
 20
12.1692
 30
0.0
  0
SPLINE
  5
1A9
330
1F
100
AcDbEntity
  8
DEFPOINTS
370
    25
100
AcDbSpline
210
0.0
220
0.0
230
1.0
 70
    24
 71
     3
 72
     8
 73
     4
 74
     0
 42
0.0000000001
 43
0.0000000001
 40
0.0
 40
0.0
 40
0.0
 40
0.0
 40
1.0
 40
1.0
 40
1.0
 40
1.0
 10
145.5823
 20
11.181
 30
0.0
 10
145.5823
 20
11.181
 30
0.0
 10
145.091
 20
8.5541
 30
0.0
 10
145.091
 20
8.5541
 30
0.0
  0
SPLINE
  5
1AA
330
1F
100
AcDbEntity
  8
DEFPOINTS
370
    25
100
AcDbSpline
210
0.0
220
0.0
230
1.0
 70
     8
 71
     3
 72
    16
 73
    12
 74
     0
 42
0.0000000001
 43
0.0000000001
 40
0.0
 40
0.0
 40
0.0
 40
0.0
 40
0.3333333333333333
 40
0.3333333333333333
 40
0.3333333333333333
 40
0.3333333333333333
 40
0.6666666666666666
 40
0.6666666666666666
 40
0.6666666666666666
 40
0.6666666666666666
 40
1.0
 40
1.0
 40
1.0
 40
1.0
 10
148.6664
 20
10.1406
 30
0.0
 10
148.6664
 20
10.1406
 30
0.0
 10
149.1303
 20
10.0106
 30
0.0
 10
149.1303
 20
10.0106
 30
0.0
 10
149.1303
 20
10.0106
 30
0.0
 10
149.1303
 20
10.0106
 30
0.0
 10
150.0583
 20
10.0365
 30
0.0
 10
150.0583
 20
10.0365
 30
0.0
 10
150.0583
 20
10.0365
 30
0.0
 10
150.0583
 20
10.0365
 30
0.0
 10
146.9742
 20
6.863599999999999
 30
0.0
 10
146.9742
 20
6.863599999999999
 30
0.0
  0
SPLINE
  5
1AB
330
1F
100
AcDbEntity
  8
DEFPOINTS
370
    25
100
AcDbSpline
210
0.0
220
0.0
230
1.0
 70
     8
 71
     3
 72
    68
 73
    64
 74
     0
 42
0.0000000001
 43
0.0000000001
 40
0.0
 40
0.0
 40
0.0
 40
0.0
 40
0.0625
 40
0.0625
 40
0.0625
 40
0.0625
 40
0.125
 40
0.125
 40
0.125
 40
0.125
 40
0.1875
 40
0.1875
 40
0.1875
 40
0.1875
 40
0.25
 40
0.25
 40
0.25
 40
0.25
 40
0.3125
 40
0.3125
 40
0.3125
 40
0.3125
 40
0.375
 40
0.375
 40
0.375
 40
0.375
 40
0.4375
 40
0.4375
 40
0.4375
 40
0.4375
 40
0.5
 40
0.5
 40
0.5
 40
0.5
 40
0.5625
 40
0.5625
 40
0.5625
 40
0.5625
 40
0.625
 40
0.625
 40
0.625
 40
0.625
 40
0.6875
 40
0.6875
 40
0.6875
 40
0.6875
 40
0.75
 40
0.75
 40
0.75
 40
0.75
 40
0.8125
 40
0.8125
 40
0.8125
 40
0.8125
 40
0.875
 40
0.875
 40
0.875
 40
0.875
 40
0.9375
 40
0.9375
 40
0.9375
 40
0.9375
 40
1.0
 40
1.0
 40
1.0
 40
1.0
 10
153.6884
 20
6.8116
 30
0.0
 10
153.6884
 20
6.8116
 30
0.0
 10
152.1054
 20
8.2161
 30
0.0
 10
152.1054
 20
8.2161
 30
0.0
 10
152.1054
 20
8.2161
 30
0.0
 10
152.1054
 20
8.2161
 30
0.0
 10
150.6315
 20
6.993599999999999
 30
0.0
 10
150.6315
 20
6.993599999999999
 30
0.0
 10
150.6315
 20
6.993599999999999
 30
0.0
 10
150.6315
 20
6.993599999999999
 30
0.0
 10
150.9317
 20
7.0197
 30
0.0
 10
150.9317
 20
7.0197
 30
0.0
 10
150.9317
 20
7.0197
 30
0.0
 10
150.9317
 20
7.0197
 30
0.0
 10
151.5595
 20
6.7336
 30
0.0
 10
151.5595
 20
6.7336
 30
0.0
 10
151.5595
 20
6.7336
 30
0.0
 10
151.5595
 20
6.7336
 30
0.0
 10
152.0235
 20
6.317499999999999
 30
0.0
 10
152.0235
 20
6.317499999999999
 30
0.0
 10
152.0235
 20
6.317499999999999
 30
0.0
 10
152.0235
 20
6.317499999999999
 30
0.0
 10
152.351
 20
5.745199999999999
 30
0.0
 10
152.351
 20
5.745199999999999
 30
0.0
 10
152.351
 20
5.745199999999999
 30
0.0
 10
152.351
 20
5.745199999999999
 30
0.0
 10
152.3783
 20
5.173199999999999
 30
0.0
 10
152.3783
 20
5.173199999999999
 30
0.0
 10
152.3783
 20
5.173199999999999
 30
0.0
 10
152.3783
 20
5.173199999999999
 30
0.0
 10
152.078
 20
4.5749
 30
0.0
 10
152.078
 20
4.5749
 30
0.0
 10
152.078
 20
4.5749
 30
0.0
 10
152.078
 20
4.5749
 30
0.0
 10
151.8052
 20
4.288899999999999
 30
0.0
 10
151.8052
 20
4.288899999999999
 30
0.0
 10
151.8052
 20
4.288899999999999
 30
0.0
 10
151.8052
 20
4.288899999999999
 30
0.0
 10
151.2047
 20
3.976799999999999
 30
0.0
 10
151.2047
 20
3.976799999999999
 30
0.0
 10
151.2047
 20
3.976799999999999
 30
0.0
 10
151.2047
 20
3.976799999999999
 30
0.0
 10
150.577
 20
3.950699999999999
 30
0.0
 10
150.577
 20
3.950699999999999
 30
0.0
 10
150.577
 20
3.950699999999999
 30
0.0
 10
150.577
 20
3.950699999999999
 30
0.0
 10
149.9765
 20
4.210799999999999
 30
0.0
 10
149.9765
 20
4.210799999999999
 30
0.0
 10
149.9765
 20
4.210799999999999
 30
0.0
 10
149.9765
 20
4.210799999999999
 30
0.0
 10
149.4852
 20
4.626999999999999
 30
0.0
 10
149.4852
 20
4.626999999999999
 30
0.0
 10
149.4852
 20
4.626999999999999
 30
0.0
 10
149.4852
 20
4.626999999999999
 30
0.0
 10
149.1577
 20
5.199099999999999
 30
0.0
 10
149.1577
 20
5.199099999999999
 30
0.0
 10
149.1577
 20
5.199099999999999
 30
0.0
 10
149.1577
 20
5.199099999999999
 30
0.0
 10
149.1577
 20
5.485299999999999
 30
0.0
 10
149.1577
 20
5.485299999999999
 30
0.0
 10
149.1577
 20
5.485299999999999
 30
0.0
 10
149.1577
 20
5.485299999999999
 30
0.0
 10
149.2941
 20
5.927299999999999
 30
0.0
 10
149.2941
 20
5.927299999999999
 30
0.0
  0
SPLINE
  5
1AC
330
1F
100
AcDbEntity
  8
DEFPOINTS
100
AcDbSpline
210
0.0
220
0.0
230
1.0
 70
    11
 71
     3
 72
    16
 73
    12
 74
     0
 42
0.0000000001
 43
0.0000000001
 40
0.0
 40
0.0
 40
0.0
 40
0.0
 40
0.3333333333333333
 40
0.3333333333333333
 40
0.3333333333333333
 40
0.3333333333333333
 40
0.6666666666666666
 40
0.6666666666666666
 40
0.6666666666666666
 40
0.6666666666666666
 40
1.0
 40
1.0
 40
1.0
 40
1.0
 10
154.7528
 20
0.7258
 30
0.0
 10
154.7528
 20
0.7258
 30
0.0
 10
153.7156
 20
-0.3406
 30
0.0
 10
153.7156
 20
-0.3406
 30
0.0
 10
153.7156
 20
-0.3406
 30
0.0
 10
153.7156
 20
-0.3406
 30
0.0
 10
157.5368
 20
-2.7593
 30
0.0
 10
157.5368
 20
-2.7593
 30
0.0
 10
157.5368
 20
-2.7593
 30
0.0
 10
157.5368
 20
-2.7593
 30
0.0
 10
154.7528
 20
0.7258
 30
0.0
 10
154.7528
 20
0.7258
 30
0.0
  0
SPLINE
  5
1AD
330
1F
100
AcDbEntity
  8
DEFPOINTS
370
    25
100
AcDbSpline
210
0.0
220
0.0
230
1.0
 70
    24
 71
     3
 72
     8
 73
     4
 74
     0
 42
0.0000000001
 43
0.0000000001
 40
0.0
 40
0.0
 40
0.0
 40
0.0
 40
1.0
 40
1.0
 40
1.0
 40
1.0
 10
286.416
 20
-1.926999999999999
 30
0.0
 10
286.416
 20
-1.926999999999999
 30
0.0
 10
301.8095
 20
-1.926999999999999
 30
0.0
 10
301.8095
 20
-1.926999999999999
 30
0.0
  0
SPLINE
  5
1AE
330
1F
100
AcDbEntity
  8
DEFPOINTS
370
    25
100
AcDbSpline
210
0.0
220
0.0
230
1.0
 70
    24
 71
     3
 72
     8
 73
     4
 74
     0
 42
0.0000000001
 43
0.0000000001
 40
0.0
 40
0.0
 40
0.0
 40
0.0
 40
1.0
 40
1.0
 40
1.0
 40
1.0
 10
286.416
 20
-80.7566
 30
0.0
 10
286.416
 20
-80.7566
 30
0.0
 10
301.8095
 20
-80.7566
 30
0.0
 10
301.8095
 20
-80.7566
 30
0.0
  0
SPLINE
  5
1AF
330
1F
100
AcDbEntity
  8
DEFPOINTS
370
    25
100
AcDbSpline
210
0.0
220
0.0
230
1.0
 70
    24
 71
     3
 72
     8
 73
     4
 74
     0
 42
0.0000000001
 43
0.0000000001
 40
0.0
 40
0.0
 40
0.0
 40
0.0
 40
1.0
 40
1.0
 40
1.0
 40
1.0
 10
299.5441
 20
-6.244299999999999
 30
0.0
 10
299.5441
 20
-6.244299999999999
 30
0.0
 10
299.5441
 20
-76.43930000000001
 30
0.0
 10
299.5441
 20
-76.43930000000001
 30
0.0
  0
SPLINE
  5
1B0
330
1F
100
AcDbEntity
  8
DEFPOINTS
100
AcDbSpline
210
0.0
220
0.0
230
1.0
 70
    11
 71
     3
 72
    16
 73
    12
 74
     0
 42
0.0000000001
 43
0.0000000001
 40
0.0
 40
0.0
 40
0.0
 40
0.0
 40
0.3333333333333333
 40
0.3333333333333333
 40
0.3333333333333333
 40
0.3333333333333333
 40
0.6666666666666666
 40
0.6666666666666666
 40
0.6666666666666666
 40
0.6666666666666666
 40
1.0
 40
1.0
 40
1.0
 40
1.0
 10
298.8071
 20
-6.244299999999999
 30
0.0
 10
298.8071
 20
-6.244299999999999
 30
0.0
 10
300.3083
 20
-6.244299999999999
 30
0.0
 10
300.3083
 20
-6.244299999999999
 30
0.0
 10
300.3083
 20
-6.244299999999999
 30
0.0
 10
300.3083
 20
-6.244299999999999
 30
0.0
 10
299.5441
 20
-1.926999999999999
 30
0.0
 10
299.5441
 20
-1.926999999999999
 30
0.0
 10
299.5441
 20
-1.926999999999999
 30
0.0
 10
299.5441
 20
-1.926999999999999
 30
0.0
 10
298.8071
 20
-6.244299999999999
 30
0.0
 10
298.8071
 20
-6.244299999999999
 30
0.0
  0
SPLINE
  5
1B1
330
1F
100
AcDbEntity
  8
DEFPOINTS
100
AcDbSpline
210
0.0
220
0.0
230
1.0
 70
    11
 71
     3
 72
    16
 73
    12
 74
     0
 42
0.0000000001
 43
0.0000000001
 40
0.0
 40
0.0
 40
0.0
 40
0.0
 40
0.3333333333333333
 40
0.3333333333333333
 40
0.3333333333333333
 40
0.3333333333333333
 40
0.6666666666666666
 40
0.6666666666666666
 40
0.6666666666666666
 40
0.6666666666666666
 40
1.0
 40
1.0
 40
1.0
 40
1.0
 10
298.8071
 20
-76.43930000000001
 30
0.0
 10
298.8071
 20
-76.43930000000001
 30
0.0
 10
300.3083
 20
-76.43930000000001
 30
0.0
 10
300.3083
 20
-76.43930000000001
 30
0.0
 10
300.3083
 20
-76.43930000000001
 30
0.0
 10
300.3083
 20
-76.43930000000001
 30
0.0
 10
299.5441
 20
-80.7566
 30
0.0
 10
299.5441
 20
-80.7566
 30
0.0
 10
299.5441
 20
-80.7566
 30
0.0
 10
299.5441
 20
-80.7566
 30
0.0
 10
298.8071
 20
-76.43930000000001
 30
0.0
 10
298.8071
 20
-76.43930000000001
 30
0.0
  0
SPLINE
  5
1B2
330
1F
100
AcDbEntity
  8
DEFPOINTS
370
    25
100
AcDbSpline
210
0.0
220
0.0
230
1.0
 70
     8
 71
     3
 72
    12
 73
     8
 74
     0
 42
0.0000000001
 43
0.0000000001
 40
0.0
 40
0.0
 40
0.0
 40
0.0
 40
0.5
 40
0.5
 40
0.5
 40
0.5
 40
1.0
 40
1.0
 40
1.0
 40
1.0
 10
294.8497
 20
-44.83979999999999
 30
0.0
 10
294.8497
 20
-44.83979999999999
 30
0.0
 10
297.8519
 20
-46.89449999999999
 30
0.0
 10
297.8519
 20
-46.89449999999999
 30
0.0
 10
297.8519
 20
-46.89449999999999
 30
0.0
 10
297.8519
 20
-46.89449999999999
 30
0.0
 10
297.8519
 20
-43.79959999999999
 30
0.0
 10
297.8519
 20
-43.79959999999999
 30
0.0
  0
SPLINE
  5
1B3
330
1F
100
AcDbEntity
  8
DEFPOINTS
370
    25
100
AcDbSpline
210
0.0
220
0.0
230
1.0
 70
    24
 71
     3
 72
     8
 73
     4
 74
     0
 42
0.0000000001
 43
0.0000000001
 40
0.0
 40
0.0
 40
0.0
 40
0.0
 40
1.0
 40
1.0
 40
1.0
 40
1.0
 10
294.8497
 20
-44.83979999999999
 30
0.0
 10
294.8497
 20
-44.83979999999999
 30
0.0
 10
299.3803
 20
-44.83979999999999
 30
0.0
 10
299.3803
 20
-44.83979999999999
 30
0.0
  0
SPLINE
  5
1B4
330
1F
100
AcDbEntity
  8
DEFPOINTS
370
    25
100
AcDbSpline
210
0.0
220
0.0
230
1.0
 70
     8
 71
     3
 72
    68
 73
    64
 74
     0
 42
0.0000000001
 43
0.0000000001
 40
0.0
 40
0.0
 40
0.0
 40
0.0
 40
0.0625
 40
0.0625
 40
0.0625
 40
0.0625
 40
0.125
 40
0.125
 40
0.125
 40
0.125
 40
0.1875
 40
0.1875
 40
0.1875
 40
0.1875
 40
0.25
 40
0.25
 40
0.25
 40
0.25
 40
0.3125
 40
0.3125
 40
0.3125
 40
0.3125
 40
0.375
 40
0.375
 40
0.375
 40
0.375
 40
0.4375
 40
0.4375
 40
0.4375
 40
0.4375
 40
0.5
 40
0.5
 40
0.5
 40
0.5
 40
0.5625
 40
0.5625
 40
0.5625
 40
0.5625
 40
0.625
 40
0.625
 40
0.625
 40
0.625
 40
0.6875
 40
0.6875
 40
0.6875
 40
0.6875
 40
0.75
 40
0.75
 40
0.75
 40
0.75
 40
0.8125
 40
0.8125
 40
0.8125
 40
0.8125
 40
0.875
 40
0.875
 40
0.875
 40
0.875
 40
0.9375
 40
0.9375
 40
0.9375
 40
0.9375
 40
1.0
 40
1.0
 40
1.0
 40
1.0
 10
294.8497
 20
-40.3145
 30
0.0
 10
294.8497
 20
-40.3145
 30
0.0
 10
294.8497
 20
-42.3691
 30
0.0
 10
294.8497
 20
-42.3691
 30
0.0
 10
294.8497
 20
-42.3691
 30
0.0
 10
294.8497
 20
-42.3691
 30
0.0
 10
296.7875
 20
-42.5771
 30
0.0
 10
296.7875
 20
-42.5771
 30
0.0
 10
296.7875
 20
-42.5771
 30
0.0
 10
296.7875
 20
-42.5771
 30
0.0
 10
296.5692
 20
-42.3691
 30
0.0
 10
296.5692
 20
-42.3691
 30
0.0
 10
296.5692
 20
-42.3691
 30
0.0
 10
296.5692
 20
-42.3691
 30
0.0
 10
296.3507
 20
-41.7449
 30
0.0
 10
296.3507
 20
-41.7449
 30
0.0
 10
296.3507
 20
-41.7449
 30
0.0
 10
296.3507
 20
-41.7449
 30
0.0
 10
296.3507
 20
-41.14679999999999
 30
0.0
 10
296.3507
 20
-41.14679999999999
 30
0.0
 10
296.3507
 20
-41.14679999999999
 30
0.0
 10
296.3507
 20
-41.14679999999999
 30
0.0
 10
296.5692
 20
-40.52259999999999
 30
0.0
 10
296.5692
 20
-40.52259999999999
 30
0.0
 10
296.5692
 20
-40.52259999999999
 30
0.0
 10
296.5692
 20
-40.52259999999999
 30
0.0
 10
297.0058
 20
-40.1064
 30
0.0
 10
297.0058
 20
-40.1064
 30
0.0
 10
297.0058
 20
-40.1064
 30
0.0
 10
297.0058
 20
-40.1064
 30
0.0
 10
297.6336
 20
-39.8984
 30
0.0
 10
297.6336
 20
-39.8984
 30
0.0
 10
297.6336
 20
-39.8984
 30
0.0
 10
297.6336
 20
-39.8984
 30
0.0
 10
298.0702
 20
-39.8984
 30
0.0
 10
298.0702
 20
-39.8984
 30
0.0
 10
298.0702
 20
-39.8984
 30
0.0
 10
298.0702
 20
-39.8984
 30
0.0
 10
298.7253
 20
-40.1064
 30
0.0
 10
298.7253
 20
-40.1064
 30
0.0
 10
298.7253
 20
-40.1064
 30
0.0
 10
298.7253
 20
-40.1064
 30
0.0
 10
299.1620000000001
 20
-40.52259999999999
 30
0.0
 10
299.1620000000001
 20
-40.52259999999999
 30
0.0
 10
299.1620000000001
 20
-40.52259999999999
 30
0.0
 10
299.1620000000001
 20
-40.52259999999999
 30
0.0
 10
299.3803
 20
-41.14679999999999
 30
0.0
 10
299.3803
 20
-41.14679999999999
 30
0.0
 10
299.3803
 20
-41.14679999999999
 30
0.0
 10
299.3803
 20
-41.14679999999999
 30
0.0
 10
299.3803
 20
-41.7449
 30
0.0
 10
299.3803
 20
-41.7449
 30
0.0
 10
299.3803
 20
-41.7449
 30
0.0
 10
299.3803
 20
-41.7449
 30
0.0
 10
299.1620000000001
 20
-42.3691
 30
0.0
 10
299.1620000000001
 20
-42.3691
 30
0.0
 10
299.1620000000001
 20
-42.3691
 30
0.0
 10
299.1620000000001
 20
-42.3691
 30
0.0
 10
298.9437
 20
-42.5771
 30
0.0
 10
298.9437
 20
-42.5771
 30
0.0
 10
298.9437
 20
-42.5771
 30
0.0
 10
298.9437
 20
-42.5771
 30
0.0
 10
298.507
 20
-42.78529999999999
 30
0.0
 10
298.507
 20
-42.78529999999999
 30
0.0
  0
SPLINE
  5
1B5
330
1F
100
AcDbEntity
  8
DEFPOINTS
370
    25
100
AcDbSpline
210
0.0
220
0.0
230
1.0
 70
     8
 71
     3
 72
    12
 73
     8
 74
     0
 42
0.0000000001
 43
0.0000000001
 40
0.0
 40
0.0
 40
0.0
 40
0.0
 40
0.5
 40
0.5
 40
0.5
 40
0.5
 40
1.0
 40
1.0
 40
1.0
 40
1.0
 10
294.8497
 20
-38.676
 30
0.0
 10
294.8497
 20
-38.676
 30
0.0
 10
294.8497
 20
-35.7891
 30
0.0
 10
294.8497
 20
-35.7891
 30
0.0
 10
294.8497
 20
-35.7891
 30
0.0
 10
294.8497
 20
-35.7891
 30
0.0
 10
299.3803
 20
-37.8438
 30
0.0
 10
299.3803
 20
-37.8438
 30
0.0
  0
SPLINE
  5
1B6
330
1F
100
AcDbEntity
  8
DEFPOINTS
370
    25
100
AcDbSpline
210
0.0
220
0.0
230
1.0
 70
    24
 71
     3
 72
     8
 73
     4
 74
     0
 42
0.0000000001
 43
0.0000000001
 40
0.0
 40
0.0
 40
0.0
 40
0.0
 40
1.0
 40
1.0
 40
1.0
 40
1.0
 10
285.7063
 20
-1.4069
 30
0.0
 10
285.7063
 20
-1.4069
 30
0.0
 10
312.0717
 20
-1.4069
 30
0.0
 10
312.0717
 20
-1.4069
 30
0.0
  0
SPLINE
  5
1B7
330
1F
100
AcDbEntity
  8
DEFPOINTS
370
    25
100
AcDbSpline
210
0.0
220
0.0
230
1.0
 70
    24
 71
     3
 72
     8
 73
     4
 74
     0
 42
0.0000000001
 43
0.0000000001
 40
0.0
 40
0.0
 40
0.0
 40
0.0
 40
1.0
 40
1.0
 40
1.0
 40
1.0
 10
288.2174
 20
-80.7566
 30
0.0
 10
288.2174
 20
-80.7566
 30
0.0
 10
312.0717
 20
-80.7566
 30
0.0
 10
312.0717
 20
-80.7566
 30
0.0
  0
SPLINE
  5
1B8
330
1F
100
AcDbEntity
  8
DEFPOINTS
370
    25
100
AcDbSpline
210
0.0
220
0.0
230
1.0
 70
    24
 71
     3
 72
     8
 73
     4
 74
     0
 42
0.0000000001
 43
0.0000000001
 40
0.0
 40
0.0
 40
0.0
 40
0.0
 40
1.0
 40
1.0
 40
1.0
 40
1.0
 10
309.8064
 20
-5.724199999999999
 30
0.0
 10
309.8064
 20
-5.724199999999999
 30
0.0
 10
309.8064
 20
-76.43930000000001
 30
0.0
 10
309.8064
 20
-76.43930000000001
 30
0.0
  0
SPLINE
  5
1B9
330
1F
100
AcDbEntity
  8
DEFPOINTS
100
AcDbSpline
210
0.0
220
0.0
230
1.0
 70
    11
 71
     3
 72
    16
 73
    12
 74
     0
 42
0.0000000001
 43
0.0000000001
 40
0.0
 40
0.0
 40
0.0
 40
0.0
 40
0.3333333333333333
 40
0.3333333333333333
 40
0.3333333333333333
 40
0.3333333333333333
 40
0.6666666666666666
 40
0.6666666666666666
 40
0.6666666666666666
 40
0.6666666666666666
 40
1.0
 40
1.0
 40
1.0
 40
1.0
 10
309.0422
 20
-5.724199999999999
 30
0.0
 10
309.0422
 20
-5.724199999999999
 30
0.0
 10
310.5433
 20
-5.724199999999999
 30
0.0
 10
310.5433
 20
-5.724199999999999
 30
0.0
 10
310.5433
 20
-5.724199999999999
 30
0.0
 10
310.5433
 20
-5.724199999999999
 30
0.0
 10
309.8064
 20
-1.4069
 30
0.0
 10
309.8064
 20
-1.4069
 30
0.0
 10
309.8064
 20
-1.4069
 30
0.0
 10
309.8064
 20
-1.4069
 30
0.0
 10
309.0422
 20
-5.724199999999999
 30
0.0
 10
309.0422
 20
-5.724199999999999
 30
0.0
  0
SPLINE
  5
1BA
330
1F
100
AcDbEntity
  8
DEFPOINTS
100
AcDbSpline
210
0.0
220
0.0
230
1.0
 70
    11
 71
     3
 72
    16
 73
    12
 74
     0
 42
0.0000000001
 43
0.0000000001
 40
0.0
 40
0.0
 40
0.0
 40
0.0
 40
0.3333333333333333
 40
0.3333333333333333
 40
0.3333333333333333
 40
0.3333333333333333
 40
0.6666666666666666
 40
0.6666666666666666
 40
0.6666666666666666
 40
0.6666666666666666
 40
1.0
 40
1.0
 40
1.0
 40
1.0
 10
309.0422
 20
-76.43930000000001
 30
0.0
 10
309.0422
 20
-76.43930000000001
 30
0.0
 10
310.5433
 20
-76.43930000000001
 30
0.0
 10
310.5433
 20
-76.43930000000001
 30
0.0
 10
310.5433
 20
-76.43930000000001
 30
0.0
 10
310.5433
 20
-76.43930000000001
 30
0.0
 10
309.8064
 20
-80.7566
 30
0.0
 10
309.8064
 20
-80.7566
 30
0.0
 10
309.8064
 20
-80.7566
 30
0.0
 10
309.8064
 20
-80.7566
 30
0.0
 10
309.0422
 20
-76.43930000000001
 30
0.0
 10
309.0422
 20
-76.43930000000001
 30
0.0
  0
SPLINE
  5
1BB
330
1F
100
AcDbEntity
  8
DEFPOINTS
370
    25
100
AcDbSpline
210
0.0
220
0.0
230
1.0
 70
     8
 71
     3
 72
    12
 73
     8
 74
     0
 42
0.0000000001
 43
0.0000000001
 40
0.0
 40
0.0
 40
0.0
 40
0.0
 40
0.5
 40
0.5
 40
0.5
 40
0.5
 40
1.0
 40
1.0
 40
1.0
 40
1.0
 10
305.0847
 20
-44.5798
 30
0.0
 10
305.0847
 20
-44.5798
 30
0.0
 10
308.1143
 20
-46.6343
 30
0.0
 10
308.1143
 20
-46.6343
 30
0.0
 10
308.1143
 20
-46.6343
 30
0.0
 10
308.1143
 20
-46.6343
 30
0.0
 10
308.1143
 20
-43.5395
 30
0.0
 10
308.1143
 20
-43.5395
 30
0.0
  0
SPLINE
  5
1BC
330
1F
100
AcDbEntity
  8
DEFPOINTS
370
    25
100
AcDbSpline
210
0.0
220
0.0
230
1.0
 70
    24
 71
     3
 72
     8
 73
     4
 74
     0
 42
0.0000000001
 43
0.0000000001
 40
0.0
 40
0.0
 40
0.0
 40
0.0
 40
1.0
 40
1.0
 40
1.0
 40
1.0
 10
305.0847
 20
-44.5798
 30
0.0
 10
305.0847
 20
-44.5798
 30
0.0
 10
309.6153
 20
-44.5798
 30
0.0
 10
309.6153
 20
-44.5798
 30
0.0
  0
SPLINE
  5
1BD
330
1F
100
AcDbEntity
  8
DEFPOINTS
370
    25
100
AcDbSpline
210
0.0
220
0.0
230
1.0
 70
     8
 71
     3
 72
    92
 73
    88
 74
     0
 42
0.0000000001
 43
0.0000000001
 40
0.0
 40
0.0
 40
0.0
 40
0.0
 40
0.0454545454545455
 40
0.0454545454545455
 40
0.0454545454545455
 40
0.0454545454545455
 40
0.0909090909090909
 40
0.0909090909090909
 40
0.0909090909090909
 40
0.0909090909090909
 40
0.1363636363636364
 40
0.1363636363636364
 40
0.1363636363636364
 40
0.1363636363636364
 40
0.1818181818181818
 40
0.1818181818181818
 40
0.1818181818181818
 40
0.1818181818181818
 40
0.2272727272727273
 40
0.2272727272727273
 40
0.2272727272727273
 40
0.2272727272727273
 40
0.2727272727272728
 40
0.2727272727272728
 40
0.2727272727272728
 40
0.2727272727272728
 40
0.3181818181818182
 40
0.3181818181818182
 40
0.3181818181818182
 40
0.3181818181818182
 40
0.3636363636363637
 40
0.3636363636363637
 40
0.3636363636363637
 40
0.3636363636363637
 40
0.4090909090909093
 40
0.4090909090909093
 40
0.4090909090909093
 40
0.4090909090909093
 40
0.4545454545454546
 40
0.4545454545454546
 40
0.4545454545454546
 40
0.4545454545454546
 40
0.5000000000000001
 40
0.5000000000000001
 40
0.5000000000000001
 40
0.5000000000000001
 40
0.5454545454545455
 40
0.5454545454545455
 40
0.5454545454545455
 40
0.5454545454545455
 40
0.590909090909091
 40
0.590909090909091
 40
0.590909090909091
 40
0.590909090909091
 40
0.6363636363636364
 40
0.6363636363636364
 40
0.6363636363636364
 40
0.6363636363636364
 40
0.6818181818181818
 40
0.6818181818181818
 40
0.6818181818181818
 40
0.6818181818181818
 40
0.7272727272727272
 40
0.7272727272727272
 40
0.7272727272727272
 40
0.7272727272727272
 40
0.7727272727272726
 40
0.7727272727272726
 40
0.7727272727272726
 40
0.7727272727272726
 40
0.8181818181818179
 40
0.8181818181818179
 40
0.8181818181818179
 40
0.8181818181818179
 40
0.8636363636363634
 40
0.8636363636363634
 40
0.8636363636363634
 40
0.8636363636363634
 40
0.9090909090909088
 40
0.9090909090909088
 40
0.9090909090909088
 40
0.9090909090909088
 40
0.9545454545454543
 40
0.9545454545454543
 40
0.9545454545454543
 40
0.9545454545454543
 40
1.0
 40
1.0
 40
1.0
 40
1.0
 10
305.7397
 20
-40.05449999999999
 30
0.0
 10
305.7397
 20
-40.05449999999999
 30
0.0
 10
305.303
 20
-40.2625
 30
0.0
 10
305.303
 20
-40.2625
 30
0.0
 10
305.303
 20
-40.2625
 30
0.0
 10
305.303
 20
-40.2625
 30
0.0
 10
305.0847
 20
-40.88669999999999
 30
0.0
 10
305.0847
 20
-40.88669999999999
 30
0.0
 10
305.0847
 20
-40.88669999999999
 30
0.0
 10
305.0847
 20
-40.88669999999999
 30
0.0
 10
305.0847
 20
-41.30279999999999
 30
0.0
 10
305.0847
 20
-41.30279999999999
 30
0.0
 10
305.0847
 20
-41.30279999999999
 30
0.0
 10
305.0847
 20
-41.30279999999999
 30
0.0
 10
305.303
 20
-41.901
 30
0.0
 10
305.303
 20
-41.901
 30
0.0
 10
305.303
 20
-41.901
 30
0.0
 10
305.303
 20
-41.901
 30
0.0
 10
305.9581
 20
-42.3171
 30
0.0
 10
305.9581
 20
-42.3171
 30
0.0
 10
305.9581
 20
-42.3171
 30
0.0
 10
305.9581
 20
-42.3171
 30
0.0
 10
307.0225
 20
-42.52519999999999
 30
0.0
 10
307.0225
 20
-42.52519999999999
 30
0.0
 10
307.0225
 20
-42.52519999999999
 30
0.0
 10
307.0225
 20
-42.52519999999999
 30
0.0
 10
308.1143
 20
-42.52519999999999
 30
0.0
 10
308.1143
 20
-42.52519999999999
 30
0.0
 10
308.1143
 20
-42.52519999999999
 30
0.0
 10
308.1143
 20
-42.52519999999999
 30
0.0
 10
308.9603
 20
-42.3171
 30
0.0
 10
308.9603
 20
-42.3171
 30
0.0
 10
308.9603
 20
-42.3171
 30
0.0
 10
308.9603
 20
-42.3171
 30
0.0
 10
309.397
 20
-41.901
 30
0.0
 10
309.397
 20
-41.901
 30
0.0
 10
309.397
 20
-41.901
 30
0.0
 10
309.397
 20
-41.901
 30
0.0
 10
309.6153
 20
-41.30279999999999
 30
0.0
 10
309.6153
 20
-41.30279999999999
 30
0.0
 10
309.6153
 20
-41.30279999999999
 30
0.0
 10
309.6153
 20
-41.30279999999999
 30
0.0
 10
309.6153
 20
-41.0947
 30
0.0
 10
309.6153
 20
-41.0947
 30
0.0
 10
309.6153
 20
-41.0947
 30
0.0
 10
309.6153
 20
-41.0947
 30
0.0
 10
309.397
 20
-40.4705
 30
0.0
 10
309.397
 20
-40.4705
 30
0.0
 10
309.397
 20
-40.4705
 30
0.0
 10
309.397
 20
-40.4705
 30
0.0
 10
308.9603
 20
-40.05449999999999
 30
0.0
 10
308.9603
 20
-40.05449999999999
 30
0.0
 10
308.9603
 20
-40.05449999999999
 30
0.0
 10
308.9603
 20
-40.05449999999999
 30
0.0
 10
308.3326
 20
-39.8463
 30
0.0
 10
308.3326
 20
-39.8463
 30
0.0
 10
308.3326
 20
-39.8463
 30
0.0
 10
308.3326
 20
-39.8463
 30
0.0
 10
308.1143
 20
-39.8463
 30
0.0
 10
308.1143
 20
-39.8463
 30
0.0
 10
308.1143
 20
-39.8463
 30
0.0
 10
308.1143
 20
-39.8463
 30
0.0
 10
307.4592
 20
-40.05449999999999
 30
0.0
 10
307.4592
 20
-40.05449999999999
 30
0.0
 10
307.4592
 20
-40.05449999999999
 30
0.0
 10
307.4592
 20
-40.05449999999999
 30
0.0
 10
307.0225
 20
-40.4705
 30
0.0
 10
307.0225
 20
-40.4705
 30
0.0
 10
307.0225
 20
-40.4705
 30
0.0
 10
307.0225
 20
-40.4705
 30
0.0
 10
306.8042
 20
-41.0947
 30
0.0
 10
306.8042
 20
-41.0947
 30
0.0
 10
306.8042
 20
-41.0947
 30
0.0
 10
306.8042
 20
-41.0947
 30
0.0
 10
306.8042
 20
-41.30279999999999
 30
0.0
 10
306.8042
 20
-41.30279999999999
 30
0.0
 10
306.8042
 20
-41.30279999999999
 30
0.0
 10
306.8042
 20
-41.30279999999999
 30
0.0
 10
307.0225
 20
-41.901
 30
0.0
 10
307.0225
 20
-41.901
 30
0.0
 10
307.0225
 20
-41.901
 30
0.0
 10
307.0225
 20
-41.901
 30
0.0
 10
307.4592
 20
-42.3171
 30
0.0
 10
307.4592
 20
-42.3171
 30
0.0
 10
307.4592
 20
-42.3171
 30
0.0
 10
307.4592
 20
-42.3171
 30
0.0
 10
308.1143
 20
-42.52519999999999
 30
0.0
 10
308.1143
 20
-42.52519999999999
 30
0.0
  0
SPLINE
  5
1BE
330
1F
100
AcDbEntity
  8
DEFPOINTS
370
    25
100
AcDbSpline
210
0.0
220
0.0
230
1.0
 70
    11
 71
     3
 72
    68
 73
    64
 74
     0
 42
0.0000000001
 43
0.0000000001
 40
0.0
 40
0.0
 40
0.0
 40
0.0
 40
0.0625
 40
0.0625
 40
0.0625
 40
0.0625
 40
0.125
 40
0.125
 40
0.125
 40
0.125
 40
0.1875
 40
0.1875
 40
0.1875
 40
0.1875
 40
0.25
 40
0.25
 40
0.25
 40
0.25
 40
0.3125
 40
0.3125
 40
0.3125
 40
0.3125
 40
0.375
 40
0.375
 40
0.375
 40
0.375
 40
0.4375
 40
0.4375
 40
0.4375
 40
0.4375
 40
0.5
 40
0.5
 40
0.5
 40
0.5
 40
0.5625
 40
0.5625
 40
0.5625
 40
0.5625
 40
0.625
 40
0.625
 40
0.625
 40
0.625
 40
0.6875
 40
0.6875
 40
0.6875
 40
0.6875
 40
0.75
 40
0.75
 40
0.75
 40
0.75
 40
0.8125
 40
0.8125
 40
0.8125
 40
0.8125
 40
0.875
 40
0.875
 40
0.875
 40
0.875
 40
0.9375
 40
0.9375
 40
0.9375
 40
0.9375
 40
1.0
 40
1.0
 40
1.0
 40
1.0
 10
305.0847
 20
-37.1935
 30
0.0
 10
305.0847
 20
-37.1935
 30
0.0
 10
305.303
 20
-37.7918
 30
0.0
 10
305.303
 20
-37.7918
 30
0.0
 10
305.303
 20
-37.7918
 30
0.0
 10
305.303
 20
-37.7918
 30
0.0
 10
305.9581
 20
-38.2078
 30
0.0
 10
305.9581
 20
-38.2078
 30
0.0
 10
305.9581
 20
-38.2078
 30
0.0
 10
305.9581
 20
-38.2078
 30
0.0
 10
307.0225
 20
-38.416
 30
0.0
 10
307.0225
 20
-38.416
 30
0.0
 10
307.0225
 20
-38.416
 30
0.0
 10
307.0225
 20
-38.416
 30
0.0
 10
307.6775
 20
-38.416
 30
0.0
 10
307.6775
 20
-38.416
 30
0.0
 10
307.6775
 20
-38.416
 30
0.0
 10
307.6775
 20
-38.416
 30
0.0
 10
308.742
 20
-38.2078
 30
0.0
 10
308.742
 20
-38.2078
 30
0.0
 10
308.742
 20
-38.2078
 30
0.0
 10
308.742
 20
-38.2078
 30
0.0
 10
309.397
 20
-37.7918
 30
0.0
 10
309.397
 20
-37.7918
 30
0.0
 10
309.397
 20
-37.7918
 30
0.0
 10
309.397
 20
-37.7918
 30
0.0
 10
309.6153
 20
-37.1935
 30
0.0
 10
309.6153
 20
-37.1935
 30
0.0
 10
309.6153
 20
-37.1935
 30
0.0
 10
309.6153
 20
-37.1935
 30
0.0
 10
309.6153
 20
-36.7775
 30
0.0
 10
309.6153
 20
-36.7775
 30
0.0
 10
309.6153
 20
-36.7775
 30
0.0
 10
309.6153
 20
-36.7775
 30
0.0
 10
309.397
 20
-36.1533
 30
0.0
 10
309.397
 20
-36.1533
 30
0.0
 10
309.397
 20
-36.1533
 30
0.0
 10
309.397
 20
-36.1533
 30
0.0
 10
308.742
 20
-35.7371
 30
0.0
 10
308.742
 20
-35.7371
 30
0.0
 10
308.742
 20
-35.7371
 30
0.0
 10
308.742
 20
-35.7371
 30
0.0
 10
307.6775
 20
-35.5291
 30
0.0
 10
307.6775
 20
-35.5291
 30
0.0
 10
307.6775
 20
-35.5291
 30
0.0
 10
307.6775
 20
-35.5291
 30
0.0
 10
307.0225
 20
-35.5291
 30
0.0
 10
307.0225
 20
-35.5291
 30
0.0
 10
307.0225
 20
-35.5291
 30
0.0
 10
307.0225
 20
-35.5291
 30
0.0
 10
305.9581
 20
-35.7371
 30
0.0
 10
305.9581
 20
-35.7371
 30
0.0
 10
305.9581
 20
-35.7371
 30
0.0
 10
305.9581
 20
-35.7371
 30
0.0
 10
305.303
 20
-36.1533
 30
0.0
 10
305.303
 20
-36.1533
 30
0.0
 10
305.303
 20
-36.1533
 30
0.0
 10
305.303
 20
-36.1533
 30
0.0
 10
305.0847
 20
-36.7775
 30
0.0
 10
305.0847
 20
-36.7775
 30
0.0
 10
305.0847
 20
-36.7775
 30
0.0
 10
305.0847
 20
-36.7775
 30
0.0
 10
305.0847
 20
-37.1935
 30
0.0
 10
305.0847
 20
-37.1935
 30
0.0
  0
SPLINE
  5
1BF
330
1F
100
AcDbEntity
  8
DEFPOINTS
370
    25
100
AcDbSpline
210
0.0
220
0.0
230
1.0
 70
    24
 71
     3
 72
     8
 73
     4
 74
     0
 42
0.0000000001
 43
0.0000000001
 40
0.0
 40
0.0
 40
0.0
 40
0.0
 40
1.0
 40
1.0
 40
1.0
 40
1.0
 10
286.2795
 20
-1.1728
 30
0.0
 10
286.2795
 20
-1.1728
 30
0.0
 10
322.607
 20
-1.1728
 30
0.0
 10
322.607
 20
-1.1728
 30
0.0
  0
SPLINE
  5
1C0
330
1F
100
AcDbEntity
  8
DEFPOINTS
370
    25
100
AcDbSpline
210
0.0
220
0.0
230
1.0
 70
    24
 71
     3
 72
     8
 73
     4
 74
     0
 42
0.0000000001
 43
0.0000000001
 40
0.0
 40
0.0
 40
0.0
 40
0.0
 40
1.0
 40
1.0
 40
1.0
 40
1.0
 10
288.272
 20
-81.0687
 30
0.0
 10
288.272
 20
-81.0687
 30
0.0
 10
322.607
 20
-81.0687
 30
0.0
 10
322.607
 20
-81.0687
 30
0.0
  0
SPLINE
  5
1C1
330
1F
100
AcDbEntity
  8
DEFPOINTS
370
    25
100
AcDbSpline
210
0.0
220
0.0
230
1.0
 70
    24
 71
     3
 72
     8
 73
     4
 74
     0
 42
0.0000000001
 43
0.0000000001
 40
0.0
 40
0.0
 40
0.0
 40
0.0
 40
1.0
 40
1.0
 40
1.0
 40
1.0
 10
320.3416
 20
-5.490099999999999
 30
0.0
 10
320.3416
 20
-5.490099999999999
 30
0.0
 10
320.3416
 20
-76.7514
 30
0.0
 10
320.3416
 20
-76.7514
 30
0.0
  0
SPLINE
  5
1C2
330
1F
100
AcDbEntity
  8
DEFPOINTS
100
AcDbSpline
210
0.0
220
0.0
230
1.0
 70
    11
 71
     3
 72
    16
 73
    12
 74
     0
 42
0.0000000001
 43
0.0000000001
 40
0.0
 40
0.0
 40
0.0
 40
0.0
 40
0.3333333333333333
 40
0.3333333333333333
 40
0.3333333333333333
 40
0.3333333333333333
 40
0.6666666666666666
 40
0.6666666666666666
 40
0.6666666666666666
 40
0.6666666666666666
 40
1.0
 40
1.0
 40
1.0
 40
1.0
 10
319.5775
 20
-5.490099999999999
 30
0.0
 10
319.5775
 20
-5.490099999999999
 30
0.0
 10
321.1059
 20
-5.490099999999999
 30
0.0
 10
321.1059
 20
-5.490099999999999
 30
0.0
 10
321.1059
 20
-5.490099999999999
 30
0.0
 10
321.1059
 20
-5.490099999999999
 30
0.0
 10
320.3416
 20
-1.1728
 30
0.0
 10
320.3416
 20
-1.1728
 30
0.0
 10
320.3416
 20
-1.1728
 30
0.0
 10
320.3416
 20
-1.1728
 30
0.0
 10
319.5775
 20
-5.490099999999999
 30
0.0
 10
319.5775
 20
-5.490099999999999
 30
0.0
  0
SPLINE
  5
1C3
330
1F
100
AcDbEntity
  8
DEFPOINTS
100
AcDbSpline
210
0.0
220
0.0
230
1.0
 70
    11
 71
     3
 72
    16
 73
    12
 74
     0
 42
0.0000000001
 43
0.0000000001
 40
0.0
 40
0.0
 40
0.0
 40
0.0
 40
0.3333333333333333
 40
0.3333333333333333
 40
0.3333333333333333
 40
0.3333333333333333
 40
0.6666666666666666
 40
0.6666666666666666
 40
0.6666666666666666
 40
0.6666666666666666
 40
1.0
 40
1.0
 40
1.0
 40
1.0
 10
319.5775
 20
-76.7514
 30
0.0
 10
319.5775
 20
-76.7514
 30
0.0
 10
321.1059
 20
-76.7514
 30
0.0
 10
321.1059
 20
-76.7514
 30
0.0
 10
321.1059
 20
-76.7514
 30
0.0
 10
321.1059
 20
-76.7514
 30
0.0
 10
320.3416
 20
-81.0687
 30
0.0
 10
320.3416
 20
-81.0687
 30
0.0
 10
320.3416
 20
-81.0687
 30
0.0
 10
320.3416
 20
-81.0687
 30
0.0
 10
319.5775
 20
-76.7514
 30
0.0
 10
319.5775
 20
-76.7514
 30
0.0
  0
SPLINE
  5
1C4
330
1F
100
AcDbEntity
  8
DEFPOINTS
370
    25
100
AcDbSpline
210
0.0
220
0.0
230
1.0
 70
     8
 71
     3
 72
    12
 73
     8
 74
     0
 42
0.0000000001
 43
0.0000000001
 40
0.0
 40
0.0
 40
0.0
 40
0.0
 40
0.5
 40
0.5
 40
0.5
 40
0.5
 40
1.0
 40
1.0
 40
1.0
 40
1.0
 10
315.6472
 20
-44.60569999999999
 30
0.0
 10
315.6472
 20
-44.60569999999999
 30
0.0
 10
318.6495
 20
-46.6604
 30
0.0
 10
318.6495
 20
-46.6604
 30
0.0
 10
318.6495
 20
-46.6604
 30
0.0
 10
318.6495
 20
-46.6604
 30
0.0
 10
318.6495
 20
-43.5914
 30
0.0
 10
318.6495
 20
-43.5914
 30
0.0
  0
SPLINE
  5
1C5
330
1F
100
AcDbEntity
  8
DEFPOINTS
370
    25
100
AcDbSpline
210
0.0
220
0.0
230
1.0
 70
    24
 71
     3
 72
     8
 73
     4
 74
     0
 42
0.0000000001
 43
0.0000000001
 40
0.0
 40
0.0
 40
0.0
 40
0.0
 40
1.0
 40
1.0
 40
1.0
 40
1.0
 10
315.6472
 20
-44.60569999999999
 30
0.0
 10
315.6472
 20
-44.60569999999999
 30
0.0
 10
320.1506
 20
-44.60569999999999
 30
0.0
 10
320.1506
 20
-44.60569999999999
 30
0.0
  0
SPLINE
  5
1C6
330
1F
100
AcDbEntity
  8
DEFPOINTS
370
    25
100
AcDbSpline
210
0.0
220
0.0
230
1.0
 70
     8
 71
     3
 72
    92
 73
    88
 74
     0
 42
0.0000000001
 43
0.0000000001
 40
0.0
 40
0.0
 40
0.0
 40
0.0
 40
0.0454545454545455
 40
0.0454545454545455
 40
0.0454545454545455
 40
0.0454545454545455
 40
0.0909090909090909
 40
0.0909090909090909
 40
0.0909090909090909
 40
0.0909090909090909
 40
0.1363636363636364
 40
0.1363636363636364
 40
0.1363636363636364
 40
0.1363636363636364
 40
0.1818181818181818
 40
0.1818181818181818
 40
0.1818181818181818
 40
0.1818181818181818
 40
0.2272727272727273
 40
0.2272727272727273
 40
0.2272727272727273
 40
0.2272727272727273
 40
0.2727272727272728
 40
0.2727272727272728
 40
0.2727272727272728
 40
0.2727272727272728
 40
0.3181818181818182
 40
0.3181818181818182
 40
0.3181818181818182
 40
0.3181818181818182
 40
0.3636363636363637
 40
0.3636363636363637
 40
0.3636363636363637
 40
0.3636363636363637
 40
0.4090909090909093
 40
0.4090909090909093
 40
0.4090909090909093
 40
0.4090909090909093
 40
0.4545454545454546
 40
0.4545454545454546
 40
0.4545454545454546
 40
0.4545454545454546
 40
0.5000000000000001
 40
0.5000000000000001
 40
0.5000000000000001
 40
0.5000000000000001
 40
0.5454545454545455
 40
0.5454545454545455
 40
0.5454545454545455
 40
0.5454545454545455
 40
0.590909090909091
 40
0.590909090909091
 40
0.590909090909091
 40
0.590909090909091
 40
0.6363636363636364
 40
0.6363636363636364
 40
0.6363636363636364
 40
0.6363636363636364
 40
0.6818181818181818
 40
0.6818181818181818
 40
0.6818181818181818
 40
0.6818181818181818
 40
0.7272727272727272
 40
0.7272727272727272
 40
0.7272727272727272
 40
0.7272727272727272
 40
0.7727272727272726
 40
0.7727272727272726
 40
0.7727272727272726
 40
0.7727272727272726
 40
0.8181818181818179
 40
0.8181818181818179
 40
0.8181818181818179
 40
0.8181818181818179
 40
0.8636363636363634
 40
0.8636363636363634
 40
0.8636363636363634
 40
0.8636363636363634
 40
0.9090909090909088
 40
0.9090909090909088
 40
0.9090909090909088
 40
0.9090909090909088
 40
0.9545454545454543
 40
0.9545454545454543
 40
0.9545454545454543
 40
0.9545454545454543
 40
1.0
 40
1.0
 40
1.0
 40
1.0
 10
316.2749
 20
-40.1064
 30
0.0
 10
316.2749
 20
-40.1064
 30
0.0
 10
315.8655
 20
-40.2885
 30
0.0
 10
315.8655
 20
-40.2885
 30
0.0
 10
315.8655
 20
-40.2885
 30
0.0
 10
315.8655
 20
-40.2885
 30
0.0
 10
315.6472
 20
-40.9127
 30
0.0
 10
315.6472
 20
-40.9127
 30
0.0
 10
315.6472
 20
-40.9127
 30
0.0
 10
315.6472
 20
-40.9127
 30
0.0
 10
315.6472
 20
-41.3288
 30
0.0
 10
315.6472
 20
-41.3288
 30
0.0
 10
315.6472
 20
-41.3288
 30
0.0
 10
315.6472
 20
-41.3288
 30
0.0
 10
315.8655
 20
-41.95289999999999
 30
0.0
 10
315.8655
 20
-41.95289999999999
 30
0.0
 10
315.8655
 20
-41.95289999999999
 30
0.0
 10
315.8655
 20
-41.95289999999999
 30
0.0
 10
316.4932
 20
-42.34309999999999
 30
0.0
 10
316.4932
 20
-42.34309999999999
 30
0.0
 10
316.4932
 20
-42.34309999999999
 30
0.0
 10
316.4932
 20
-42.34309999999999
 30
0.0
 10
317.585
 20
-42.5512
 30
0.0
 10
317.585
 20
-42.5512
 30
0.0
 10
317.585
 20
-42.5512
 30
0.0
 10
317.585
 20
-42.5512
 30
0.0
 10
318.6495
 20
-42.5512
 30
0.0
 10
318.6495
 20
-42.5512
 30
0.0
 10
318.6495
 20
-42.5512
 30
0.0
 10
318.6495
 20
-42.5512
 30
0.0
 10
319.5228
 20
-42.34309999999999
 30
0.0
 10
319.5228
 20
-42.34309999999999
 30
0.0
 10
319.5228
 20
-42.34309999999999
 30
0.0
 10
319.5228
 20
-42.34309999999999
 30
0.0
 10
319.9596
 20
-41.95289999999999
 30
0.0
 10
319.9596
 20
-41.95289999999999
 30
0.0
 10
319.9596
 20
-41.95289999999999
 30
0.0
 10
319.9596
 20
-41.95289999999999
 30
0.0
 10
320.1506
 20
-41.3288
 30
0.0
 10
320.1506
 20
-41.3288
 30
0.0
 10
320.1506
 20
-41.3288
 30
0.0
 10
320.1506
 20
-41.3288
 30
0.0
 10
320.1506
 20
-41.1207
 30
0.0
 10
320.1506
 20
-41.1207
 30
0.0
 10
320.1506
 20
-41.1207
 30
0.0
 10
320.1506
 20
-41.1207
 30
0.0
 10
319.9596
 20
-40.49649999999999
 30
0.0
 10
319.9596
 20
-40.49649999999999
 30
0.0
 10
319.9596
 20
-40.49649999999999
 30
0.0
 10
319.9596
 20
-40.49649999999999
 30
0.0
 10
319.5228
 20
-40.1064
 30
0.0
 10
319.5228
 20
-40.1064
 30
0.0
 10
319.5228
 20
-40.1064
 30
0.0
 10
319.5228
 20
-40.1064
 30
0.0
 10
318.8678
 20
-39.8984
 30
0.0
 10
318.8678
 20
-39.8984
 30
0.0
 10
318.8678
 20
-39.8984
 30
0.0
 10
318.8678
 20
-39.8984
 30
0.0
 10
318.6495
 20
-39.8984
 30
0.0
 10
318.6495
 20
-39.8984
 30
0.0
 10
318.6495
 20
-39.8984
 30
0.0
 10
318.6495
 20
-39.8984
 30
0.0
 10
317.9944
 20
-40.1064
 30
0.0
 10
317.9944
 20
-40.1064
 30
0.0
 10
317.9944
 20
-40.1064
 30
0.0
 10
317.9944
 20
-40.1064
 30
0.0
 10
317.585
 20
-40.49649999999999
 30
0.0
 10
317.585
 20
-40.49649999999999
 30
0.0
 10
317.585
 20
-40.49649999999999
 30
0.0
 10
317.585
 20
-40.49649999999999
 30
0.0
 10
317.3667
 20
-41.1207
 30
0.0
 10
317.3667
 20
-41.1207
 30
0.0
 10
317.3667
 20
-41.1207
 30
0.0
 10
317.3667
 20
-41.1207
 30
0.0
 10
317.3667
 20
-41.3288
 30
0.0
 10
317.3667
 20
-41.3288
 30
0.0
 10
317.3667
 20
-41.3288
 30
0.0
 10
317.3667
 20
-41.3288
 30
0.0
 10
317.585
 20
-41.95289999999999
 30
0.0
 10
317.585
 20
-41.95289999999999
 30
0.0
 10
317.585
 20
-41.95289999999999
 30
0.0
 10
317.585
 20
-41.95289999999999
 30
0.0
 10
317.9944
 20
-42.34309999999999
 30
0.0
 10
317.9944
 20
-42.34309999999999
 30
0.0
 10
317.9944
 20
-42.34309999999999
 30
0.0
 10
317.9944
 20
-42.34309999999999
 30
0.0
 10
318.6495
 20
-42.5512
 30
0.0
 10
318.6495
 20
-42.5512
 30
0.0
  0
SPLINE
  5
1C7
330
1F
100
AcDbEntity
  8
DEFPOINTS
370
    25
100
AcDbSpline
210
0.0
220
0.0
230
1.0
 70
     8
 71
     3
 72
    60
 73
    56
 74
     0
 42
0.0000000001
 43
0.0000000001
 40
0.0
 40
0.0
 40
0.0
 40
0.0
 40
0.0714285714285714
 40
0.0714285714285714
 40
0.0714285714285714
 40
0.0714285714285714
 40
0.1428571428571428
 40
0.1428571428571428
 40
0.1428571428571428
 40
0.1428571428571428
 40
0.2142857142857143
 40
0.2142857142857143
 40
0.2142857142857143
 40
0.2142857142857143
 40
0.2857142857142857
 40
0.2857142857142857
 40
0.2857142857142857
 40
0.2857142857142857
 40
0.3571428571428571
 40
0.3571428571428571
 40
0.3571428571428571
 40
0.3571428571428571
 40
0.4285714285714285
 40
0.4285714285714285
 40
0.4285714285714285
 40
0.4285714285714285
 40
0.5
 40
0.5
 40
0.5
 40
0.5
 40
0.5714285714285713
 40
0.5714285714285713
 40
0.5714285714285713
 40
0.5714285714285713
 40
0.6428571428571427
 40
0.6428571428571427
 40
0.6428571428571427
 40
0.6428571428571427
 40
0.7142857142857141
 40
0.7142857142857141
 40
0.7142857142857141
 40
0.7142857142857141
 40
0.7857142857142855
 40
0.7857142857142855
 40
0.7857142857142855
 40
0.7857142857142855
 40
0.8571428571428569
 40
0.8571428571428569
 40
0.8571428571428569
 40
0.8571428571428569
 40
0.9285714285714284
 40
0.9285714285714284
 40
0.9285714285714284
 40
0.9285714285714284
 40
1.0
 40
1.0
 40
1.0
 40
1.0
 10
315.6472
 20
-38.0518
 30
0.0
 10
315.6472
 20
-38.0518
 30
0.0
 10
315.6472
 20
-35.7891
 30
0.0
 10
315.6472
 20
-35.7891
 30
0.0
 10
315.6472
 20
-35.7891
 30
0.0
 10
315.6472
 20
-35.7891
 30
0.0
 10
317.3667
 20
-37.0115
 30
0.0
 10
317.3667
 20
-37.0115
 30
0.0
 10
317.3667
 20
-37.0115
 30
0.0
 10
317.3667
 20
-37.0115
 30
0.0
 10
317.3667
 20
-36.3874
 30
0.0
 10
317.3667
 20
-36.3874
 30
0.0
 10
317.3667
 20
-36.3874
 30
0.0
 10
317.3667
 20
-36.3874
 30
0.0
 10
317.585
 20
-35.9972
 30
0.0
 10
317.585
 20
-35.9972
 30
0.0
 10
317.585
 20
-35.9972
 30
0.0
 10
317.585
 20
-35.9972
 30
0.0
 10
317.8033
 20
-35.7891
 30
0.0
 10
317.8033
 20
-35.7891
 30
0.0
 10
317.8033
 20
-35.7891
 30
0.0
 10
317.8033
 20
-35.7891
 30
0.0
 10
318.4312
 20
-35.5811
 30
0.0
 10
318.4312
 20
-35.5811
 30
0.0
 10
318.4312
 20
-35.5811
 30
0.0
 10
318.4312
 20
-35.5811
 30
0.0
 10
318.8678
 20
-35.5811
 30
0.0
 10
318.8678
 20
-35.5811
 30
0.0
 10
318.8678
 20
-35.5811
 30
0.0
 10
318.8678
 20
-35.5811
 30
0.0
 10
319.5228
 20
-35.7891
 30
0.0
 10
319.5228
 20
-35.7891
 30
0.0
 10
319.5228
 20
-35.7891
 30
0.0
 10
319.5228
 20
-35.7891
 30
0.0
 10
319.9596
 20
-36.2053
 30
0.0
 10
319.9596
 20
-36.2053
 30
0.0
 10
319.9596
 20
-36.2053
 30
0.0
 10
319.9596
 20
-36.2053
 30
0.0
 10
320.1506
 20
-36.80340000000001
 30
0.0
 10
320.1506
 20
-36.80340000000001
 30
0.0
 10
320.1506
 20
-36.80340000000001
 30
0.0
 10
320.1506
 20
-36.80340000000001
 30
0.0
 10
320.1506
 20
-37.4276
 30
0.0
 10
320.1506
 20
-37.4276
 30
0.0
 10
320.1506
 20
-37.4276
 30
0.0
 10
320.1506
 20
-37.4276
 30
0.0
 10
319.9596
 20
-38.0518
 30
0.0
 10
319.9596
 20
-38.0518
 30
0.0
 10
319.9596
 20
-38.0518
 30
0.0
 10
319.9596
 20
-38.0518
 30
0.0
 10
319.7412
 20
-38.2599
 30
0.0
 10
319.7412
 20
-38.2599
 30
0.0
 10
319.7412
 20
-38.2599
 30
0.0
 10
319.7412
 20
-38.2599
 30
0.0
 10
319.3045
 20
-38.4419
 30
0.0
 10
319.3045
 20
-38.4419
 30
0.0
  0
SPLINE
  5
1C8
330
1F
100
AcDbEntity
  8
DEFPOINTS
370
    25
100
AcDbSpline
210
0.0
220
0.0
230
1.0
 70
    24
 71
     3
 72
     8
 73
     4
 74
     0
 42
0.0000000001
 43
0.0000000001
 40
0.0
 40
0.0
 40
0.0
 40
0.0
 40
1.0
 40
1.0
 40
1.0
 40
1.0
 10
156.8271
 20
-80.54859999999999
 30
0.0
 10
156.8271
 20
-80.54859999999999
 30
0.0
 10
156.8271
 20
-90.7436
 30
0.0
 10
156.8271
 20
-90.7436
 30
0.0
  0
SPLINE
  5
1C9
330
1F
100
AcDbEntity
  8
DEFPOINTS
370
    25
100
AcDbSpline
210
0.0
220
0.0
230
1.0
 70
    24
 71
     3
 72
     8
 73
     4
 74
     0
 42
0.0000000001
 43
0.0000000001
 40
0.0
 40
0.0
 40
0.0
 40
0.0
 40
1.0
 40
1.0
 40
1.0
 40
1.0
 10
290.046
 20
-78.5459
 30
0.0
 10
290.046
 20
-78.5459
 30
0.0
 10
290.046
 20
-90.7436
 30
0.0
 10
290.046
 20
-90.7436
 30
0.0
  0
SPLINE
  5
1CA
330
1F
100
AcDbEntity
  8
DEFPOINTS
370
    25
100
AcDbSpline
210
0.0
220
0.0
230
1.0
 70
    24
 71
     3
 72
     8
 73
     4
 74
     0
 42
0.0000000001
 43
0.0000000001
 40
0.0
 40
0.0
 40
0.0
 40
0.0
 40
1.0
 40
1.0
 40
1.0
 40
1.0
 10
161.3305
 20
-88.58499999999999
 30
0.0
 10
161.3305
 20
-88.58499999999999
 30
0.0
 10
285.5154
 20
-88.58499999999999
 30
0.0
 10
285.5154
 20
-88.58499999999999
 30
0.0
  0
SPLINE
  5
1CB
330
1F
100
AcDbEntity
  8
DEFPOINTS
100
AcDbSpline
210
0.0
220
0.0
230
1.0
 70
    11
 71
     3
 72
    16
 73
    12
 74
     0
 42
0.0000000001
 43
0.0000000001
 40
0.0
 40
0.0
 40
0.0
 40
0.0
 40
0.3333333333333333
 40
0.3333333333333333
 40
0.3333333333333333
 40
0.3333333333333333
 40
0.6666666666666666
 40
0.6666666666666666
 40
0.6666666666666666
 40
0.6666666666666666
 40
1.0
 40
1.0
 40
1.0
 40
1.0
 10
161.3305
 20
-87.85670000000001
 30
0.0
 10
161.3305
 20
-87.85670000000001
 30
0.0
 10
161.3305
 20
-89.2872
 30
0.0
 10
161.3305
 20
-89.2872
 30
0.0
 10
161.3305
 20
-89.2872
 30
0.0
 10
161.3305
 20
-89.2872
 30
0.0
 10
156.8271
 20
-88.58499999999999
 30
0.0
 10
156.8271
 20
-88.58499999999999
 30
0.0
 10
156.8271
 20
-88.58499999999999
 30
0.0
 10
156.8271
 20
-88.58499999999999
 30
0.0
 10
161.3305
 20
-87.85670000000001
 30
0.0
 10
161.3305
 20
-87.85670000000001
 30
0.0
  0
SPLINE
  5
1CC
330
1F
100
AcDbEntity
  8
DEFPOINTS
100
AcDbSpline
210
0.0
220
0.0
230
1.0
 70
    11
 71
     3
 72
    16
 73
    12
 74
     0
 42
0.0000000001
 43
0.0000000001
 40
0.0
 40
0.0
 40
0.0
 40
0.0
 40
0.3333333333333333
 40
0.3333333333333333
 40
0.3333333333333333
 40
0.3333333333333333
 40
0.6666666666666666
 40
0.6666666666666666
 40
0.6666666666666666
 40
0.6666666666666666
 40
1.0
 40
1.0
 40
1.0
 40
1.0
 10
285.5154
 20
-87.85670000000001
 30
0.0
 10
285.5154
 20
-87.85670000000001
 30
0.0
 10
285.5154
 20
-89.2872
 30
0.0
 10
285.5154
 20
-89.2872
 30
0.0
 10
285.5154
 20
-89.2872
 30
0.0
 10
285.5154
 20
-89.2872
 30
0.0
 10
290.046
 20
-88.58499999999999
 30
0.0
 10
290.046
 20
-88.58499999999999
 30
0.0
 10
290.046
 20
-88.58499999999999
 30
0.0
 10
290.046
 20
-88.58499999999999
 30
0.0
 10
285.5154
 20
-87.85670000000001
 30
0.0
 10
285.5154
 20
-87.85670000000001
 30
0.0
  0
SPLINE
  5
1CD
330
1F
100
AcDbEntity
  8
DEFPOINTS
370
    25
100
AcDbSpline
210
0.0
220
0.0
230
1.0
 70
     8
 71
     3
 72
    12
 73
     8
 74
     0
 42
0.0000000001
 43
0.0000000001
 40
0.0
 40
0.0
 40
0.0
 40
0.0
 40
0.5
 40
0.5
 40
0.5
 40
0.5
 40
1.0
 40
1.0
 40
1.0
 40
1.0
 10
217.7186
 20
-84.08559999999999
 30
0.0
 10
217.7186
 20
-84.08559999999999
 30
0.0
 10
220.7482
 20
-84.08559999999999
 30
0.0
 10
220.7482
 20
-84.08559999999999
 30
0.0
 10
220.7482
 20
-84.08559999999999
 30
0.0
 10
220.7482
 20
-84.08559999999999
 30
0.0
 10
218.592
 20
-88.40290000000001
 30
0.0
 10
218.592
 20
-88.40290000000001
 30
0.0
  0
SPLINE
  5
1CE
330
1F
100
AcDbEntity
  8
DEFPOINTS
370
    25
100
AcDbSpline
210
0.0
220
0.0
230
1.0
 70
     8
 71
     3
 72
    60
 73
    56
 74
     0
 42
0.0000000001
 43
0.0000000001
 40
0.0
 40
0.0
 40
0.0
 40
0.0
 40
0.0714285714285714
 40
0.0714285714285714
 40
0.0714285714285714
 40
0.0714285714285714
 40
0.1428571428571428
 40
0.1428571428571428
 40
0.1428571428571428
 40
0.1428571428571428
 40
0.2142857142857143
 40
0.2142857142857143
 40
0.2142857142857143
 40
0.2142857142857143
 40
0.2857142857142857
 40
0.2857142857142857
 40
0.2857142857142857
 40
0.2857142857142857
 40
0.3571428571428571
 40
0.3571428571428571
 40
0.3571428571428571
 40
0.3571428571428571
 40
0.4285714285714285
 40
0.4285714285714285
 40
0.4285714285714285
 40
0.4285714285714285
 40
0.5
 40
0.5
 40
0.5
 40
0.5
 40
0.5714285714285713
 40
0.5714285714285713
 40
0.5714285714285713
 40
0.5714285714285713
 40
0.6428571428571427
 40
0.6428571428571427
 40
0.6428571428571427
 40
0.6428571428571427
 40
0.7142857142857141
 40
0.7142857142857141
 40
0.7142857142857141
 40
0.7142857142857141
 40
0.7857142857142855
 40
0.7857142857142855
 40
0.7857142857142855
 40
0.7857142857142855
 40
0.8571428571428569
 40
0.8571428571428569
 40
0.8571428571428569
 40
0.8571428571428569
 40
0.9285714285714284
 40
0.9285714285714284
 40
0.9285714285714284
 40
0.9285714285714284
 40
1.0
 40
1.0
 40
1.0
 40
1.0
 10
222.4677
 20
-84.08559999999999
 30
0.0
 10
222.4677
 20
-84.08559999999999
 30
0.0
 10
224.8422
 20
-84.08559999999999
 30
0.0
 10
224.8422
 20
-84.08559999999999
 30
0.0
 10
224.8422
 20
-84.08559999999999
 30
0.0
 10
224.8422
 20
-84.08559999999999
 30
0.0
 10
223.5321
 20
-85.724
 30
0.0
 10
223.5321
 20
-85.724
 30
0.0
 10
223.5321
 20
-85.724
 30
0.0
 10
223.5321
 20
-85.724
 30
0.0
 10
224.1872
 20
-85.724
 30
0.0
 10
224.1872
 20
-85.724
 30
0.0
 10
224.1872
 20
-85.724
 30
0.0
 10
224.1872
 20
-85.724
 30
0.0
 10
224.6238
 20
-85.9322
 30
0.0
 10
224.6238
 20
-85.9322
 30
0.0
 10
224.6238
 20
-85.9322
 30
0.0
 10
224.6238
 20
-85.9322
 30
0.0
 10
224.8422
 20
-86.1402
 30
0.0
 10
224.8422
 20
-86.1402
 30
0.0
 10
224.8422
 20
-86.1402
 30
0.0
 10
224.8422
 20
-86.1402
 30
0.0
 10
225.0605
 20
-86.76439999999999
 30
0.0
 10
225.0605
 20
-86.76439999999999
 30
0.0
 10
225.0605
 20
-86.76439999999999
 30
0.0
 10
225.0605
 20
-86.76439999999999
 30
0.0
 10
225.0605
 20
-87.18059999999999
 30
0.0
 10
225.0605
 20
-87.18059999999999
 30
0.0
 10
225.0605
 20
-87.18059999999999
 30
0.0
 10
225.0605
 20
-87.18059999999999
 30
0.0
 10
224.8422
 20
-87.7787
 30
0.0
 10
224.8422
 20
-87.7787
 30
0.0
 10
224.8422
 20
-87.7787
 30
0.0
 10
224.8422
 20
-87.7787
 30
0.0
 10
224.4055
 20
-88.1949
 30
0.0
 10
224.4055
 20
-88.1949
 30
0.0
 10
224.4055
 20
-88.1949
 30
0.0
 10
224.4055
 20
-88.1949
 30
0.0
 10
223.7504
 20
-88.40290000000001
 30
0.0
 10
223.7504
 20
-88.40290000000001
 30
0.0
 10
223.7504
 20
-88.40290000000001
 30
0.0
 10
223.7504
 20
-88.40290000000001
 30
0.0
 10
223.1227
 20
-88.40290000000001
 30
0.0
 10
223.1227
 20
-88.40290000000001
 30
0.0
 10
223.1227
 20
-88.40290000000001
 30
0.0
 10
223.1227
 20
-88.40290000000001
 30
0.0
 10
222.4677
 20
-88.1949
 30
0.0
 10
222.4677
 20
-88.1949
 30
0.0
 10
222.4677
 20
-88.1949
 30
0.0
 10
222.4677
 20
-88.1949
 30
0.0
 10
222.2493
 20
-87.98669999999999
 30
0.0
 10
222.2493
 20
-87.98669999999999
 30
0.0
 10
222.2493
 20
-87.98669999999999
 30
0.0
 10
222.2493
 20
-87.98669999999999
 30
0.0
 10
222.031
 20
-87.5707
 30
0.0
 10
222.031
 20
-87.5707
 30
0.0
  0
SPLINE
  5
1CF
330
1F
100
AcDbEntity
  8
DEFPOINTS
370
    25
100
AcDbSpline
210
0.0
220
0.0
230
1.0
 70
     8
 71
     3
 72
    92
 73
    88
 74
     0
 42
0.0000000001
 43
0.0000000001
 40
0.0
 40
0.0
 40
0.0
 40
0.0
 40
0.0454545454545455
 40
0.0454545454545455
 40
0.0454545454545455
 40
0.0454545454545455
 40
0.0909090909090909
 40
0.0909090909090909
 40
0.0909090909090909
 40
0.0909090909090909
 40
0.1363636363636364
 40
0.1363636363636364
 40
0.1363636363636364
 40
0.1363636363636364
 40
0.1818181818181818
 40
0.1818181818181818
 40
0.1818181818181818
 40
0.1818181818181818
 40
0.2272727272727273
 40
0.2272727272727273
 40
0.2272727272727273
 40
0.2272727272727273
 40
0.2727272727272728
 40
0.2727272727272728
 40
0.2727272727272728
 40
0.2727272727272728
 40
0.3181818181818182
 40
0.3181818181818182
 40
0.3181818181818182
 40
0.3181818181818182
 40
0.3636363636363637
 40
0.3636363636363637
 40
0.3636363636363637
 40
0.3636363636363637
 40
0.4090909090909093
 40
0.4090909090909093
 40
0.4090909090909093
 40
0.4090909090909093
 40
0.4545454545454546
 40
0.4545454545454546
 40
0.4545454545454546
 40
0.4545454545454546
 40
0.5000000000000001
 40
0.5000000000000001
 40
0.5000000000000001
 40
0.5000000000000001
 40
0.5454545454545455
 40
0.5454545454545455
 40
0.5454545454545455
 40
0.5454545454545455
 40
0.590909090909091
 40
0.590909090909091
 40
0.590909090909091
 40
0.590909090909091
 40
0.6363636363636364
 40
0.6363636363636364
 40
0.6363636363636364
 40
0.6363636363636364
 40
0.6818181818181818
 40
0.6818181818181818
 40
0.6818181818181818
 40
0.6818181818181818
 40
0.7272727272727272
 40
0.7272727272727272
 40
0.7272727272727272
 40
0.7272727272727272
 40
0.7727272727272726
 40
0.7727272727272726
 40
0.7727272727272726
 40
0.7727272727272726
 40
0.8181818181818179
 40
0.8181818181818179
 40
0.8181818181818179
 40
0.8181818181818179
 40
0.8636363636363634
 40
0.8636363636363634
 40
0.8636363636363634
 40
0.8636363636363634
 40
0.9090909090909088
 40
0.9090909090909088
 40
0.9090909090909088
 40
0.9090909090909088
 40
0.9545454545454543
 40
0.9545454545454543
 40
0.9545454545454543
 40
0.9545454545454543
 40
1.0
 40
1.0
 40
1.0
 40
1.0
 10
228.9362
 20
-84.70969999999999
 30
0.0
 10
228.9362
 20
-84.70969999999999
 30
0.0
 10
228.7178
 20
-84.2937
 30
0.0
 10
228.7178
 20
-84.2937
 30
0.0
 10
228.7178
 20
-84.2937
 30
0.0
 10
228.7178
 20
-84.2937
 30
0.0
 10
228.0627
 20
-84.08559999999999
 30
0.0
 10
228.0627
 20
-84.08559999999999
 30
0.0
 10
228.0627
 20
-84.08559999999999
 30
0.0
 10
228.0627
 20
-84.08559999999999
 30
0.0
 10
227.6261
 20
-84.08559999999999
 30
0.0
 10
227.6261
 20
-84.08559999999999
 30
0.0
 10
227.6261
 20
-84.08559999999999
 30
0.0
 10
227.6261
 20
-84.08559999999999
 30
0.0
 10
226.9983
 20
-84.2937
 30
0.0
 10
226.9983
 20
-84.2937
 30
0.0
 10
226.9983
 20
-84.2937
 30
0.0
 10
226.9983
 20
-84.2937
 30
0.0
 10
226.5617
 20
-84.91789999999999
 30
0.0
 10
226.5617
 20
-84.91789999999999
 30
0.0
 10
226.5617
 20
-84.91789999999999
 30
0.0
 10
226.5617
 20
-84.91789999999999
 30
0.0
 10
226.3433
 20
-85.9322
 30
0.0
 10
226.3433
 20
-85.9322
 30
0.0
 10
226.3433
 20
-85.9322
 30
0.0
 10
226.3433
 20
-85.9322
 30
0.0
 10
226.3433
 20
-86.97239999999998
 30
0.0
 10
226.3433
 20
-86.97239999999998
 30
0.0
 10
226.3433
 20
-86.97239999999998
 30
0.0
 10
226.3433
 20
-86.97239999999998
 30
0.0
 10
226.5617
 20
-87.7787
 30
0.0
 10
226.5617
 20
-87.7787
 30
0.0
 10
226.5617
 20
-87.7787
 30
0.0
 10
226.5617
 20
-87.7787
 30
0.0
 10
226.9983
 20
-88.1949
 30
0.0
 10
226.9983
 20
-88.1949
 30
0.0
 10
226.9983
 20
-88.1949
 30
0.0
 10
226.9983
 20
-88.1949
 30
0.0
 10
227.6261
 20
-88.40290000000001
 30
0.0
 10
227.6261
 20
-88.40290000000001
 30
0.0
 10
227.6261
 20
-88.40290000000001
 30
0.0
 10
227.6261
 20
-88.40290000000001
 30
0.0
 10
227.8444
 20
-88.40290000000001
 30
0.0
 10
227.8444
 20
-88.40290000000001
 30
0.0
 10
227.8444
 20
-88.40290000000001
 30
0.0
 10
227.8444
 20
-88.40290000000001
 30
0.0
 10
228.4995
 20
-88.1949
 30
0.0
 10
228.4995
 20
-88.1949
 30
0.0
 10
228.4995
 20
-88.1949
 30
0.0
 10
228.4995
 20
-88.1949
 30
0.0
 10
228.9362
 20
-87.7787
 30
0.0
 10
228.9362
 20
-87.7787
 30
0.0
 10
228.9362
 20
-87.7787
 30
0.0
 10
228.9362
 20
-87.7787
 30
0.0
 10
229.1545
 20
-87.18059999999999
 30
0.0
 10
229.1545
 20
-87.18059999999999
 30
0.0
 10
229.1545
 20
-87.18059999999999
 30
0.0
 10
229.1545
 20
-87.18059999999999
 30
0.0
 10
229.1545
 20
-86.97239999999998
 30
0.0
 10
229.1545
 20
-86.97239999999998
 30
0.0
 10
229.1545
 20
-86.97239999999998
 30
0.0
 10
229.1545
 20
-86.97239999999998
 30
0.0
 10
228.9362
 20
-86.34820000000001
 30
0.0
 10
228.9362
 20
-86.34820000000001
 30
0.0
 10
228.9362
 20
-86.34820000000001
 30
0.0
 10
228.9362
 20
-86.34820000000001
 30
0.0
 10
228.4995
 20
-85.9322
 30
0.0
 10
228.4995
 20
-85.9322
 30
0.0
 10
228.4995
 20
-85.9322
 30
0.0
 10
228.4995
 20
-85.9322
 30
0.0
 10
227.8444
 20
-85.724
 30
0.0
 10
227.8444
 20
-85.724
 30
0.0
 10
227.8444
 20
-85.724
 30
0.0
 10
227.8444
 20
-85.724
 30
0.0
 10
227.6261
 20
-85.724
 30
0.0
 10
227.6261
 20
-85.724
 30
0.0
 10
227.6261
 20
-85.724
 30
0.0
 10
227.6261
 20
-85.724
 30
0.0
 10
226.9983
 20
-85.9322
 30
0.0
 10
226.9983
 20
-85.9322
 30
0.0
 10
226.9983
 20
-85.9322
 30
0.0
 10
226.9983
 20
-85.9322
 30
0.0
 10
226.5617
 20
-86.34820000000001
 30
0.0
 10
226.5617
 20
-86.34820000000001
 30
0.0
 10
226.5617
 20
-86.34820000000001
 30
0.0
 10
226.5617
 20
-86.34820000000001
 30
0.0
 10
226.3433
 20
-86.97239999999998
 30
0.0
 10
226.3433
 20
-86.97239999999998
 30
0.0
  0
SPLINE
  5
1D0
330
1F
100
AcDbEntity
  8
DEFPOINTS
370
    25
100
AcDbSpline
210
0.0
220
0.0
230
1.0
 70
    24
 71
     3
 72
     8
 73
     4
 74
     0
 42
0.0000000001
 43
0.0000000001
 40
0.0
 40
0.0
 40
0.0
 40
0.0
 40
1.0
 40
1.0
 40
1.0
 40
1.0
 10
156.2812
 20
-79.89830000000001
 30
0.0
 10
156.2812
 20
-79.89830000000001
 30
0.0
 10
156.2812
 20
-99.09210000000001
 30
0.0
 10
156.2812
 20
-99.09210000000001
 30
0.0
  0
SPLINE
  5
1D1
330
1F
100
AcDbEntity
  8
DEFPOINTS
370
    25
100
AcDbSpline
210
0.0
220
0.0
230
1.0
 70
    24
 71
     3
 72
     8
 73
     4
 74
     0
 42
0.0000000001
 43
0.0000000001
 40
0.0
 40
0.0
 40
0.0
 40
0.0
 40
1.0
 40
1.0
 40
1.0
 40
1.0
 10
290.5919
 20
-79.89830000000001
 30
0.0
 10
290.5919
 20
-79.89830000000001
 30
0.0
 10
290.5919
 20
-99.09210000000001
 30
0.0
 10
290.5919
 20
-99.09210000000001
 30
0.0
  0
SPLINE
  5
1D2
330
1F
100
AcDbEntity
  8
DEFPOINTS
370
    25
100
AcDbSpline
210
0.0
220
0.0
230
1.0
 70
    24
 71
     3
 72
     8
 73
     4
 74
     0
 42
0.0000000001
 43
0.0000000001
 40
0.0
 40
0.0
 40
0.0
 40
0.0
 40
1.0
 40
1.0
 40
1.0
 40
1.0
 10
160.7846
 20
-96.9335
 30
0.0
 10
160.7846
 20
-96.9335
 30
0.0
 10
286.0612
 20
-96.9335
 30
0.0
 10
286.0612
 20
-96.9335
 30
0.0
  0
SPLINE
  5
1D3
330
1F
100
AcDbEntity
  8
DEFPOINTS
100
AcDbSpline
210
0.0
220
0.0
230
1.0
 70
    11
 71
     3
 72
    16
 73
    12
 74
     0
 42
0.0000000001
 43
0.0000000001
 40
0.0
 40
0.0
 40
0.0
 40
0.0
 40
0.3333333333333333
 40
0.3333333333333333
 40
0.3333333333333333
 40
0.3333333333333333
 40
0.6666666666666666
 40
0.6666666666666666
 40
0.6666666666666666
 40
0.6666666666666666
 40
1.0
 40
1.0
 40
1.0
 40
1.0
 10
160.7846
 20
-96.2052
 30
0.0
 10
160.7846
 20
-96.2052
 30
0.0
 10
160.7846
 20
-97.66160000000001
 30
0.0
 10
160.7846
 20
-97.66160000000001
 30
0.0
 10
160.7846
 20
-97.66160000000001
 30
0.0
 10
160.7846
 20
-97.66160000000001
 30
0.0
 10
156.2812
 20
-96.9335
 30
0.0
 10
156.2812
 20
-96.9335
 30
0.0
 10
156.2812
 20
-96.9335
 30
0.0
 10
156.2812
 20
-96.9335
 30
0.0
 10
160.7846
 20
-96.2052
 30
0.0
 10
160.7846
 20
-96.2052
 30
0.0
  0
SPLINE
  5
1D4
330
1F
100
AcDbEntity
  8
DEFPOINTS
100
AcDbSpline
210
0.0
220
0.0
230
1.0
 70
    11
 71
     3
 72
    16
 73
    12
 74
     0
 42
0.0000000001
 43
0.0000000001
 40
0.0
 40
0.0
 40
0.0
 40
0.0
 40
0.3333333333333333
 40
0.3333333333333333
 40
0.3333333333333333
 40
0.3333333333333333
 40
0.6666666666666666
 40
0.6666666666666666
 40
0.6666666666666666
 40
0.6666666666666666
 40
1.0
 40
1.0
 40
1.0
 40
1.0
 10
286.0612
 20
-96.2052
 30
0.0
 10
286.0612
 20
-96.2052
 30
0.0
 10
286.0612
 20
-97.66160000000001
 30
0.0
 10
286.0612
 20
-97.66160000000001
 30
0.0
 10
286.0612
 20
-97.66160000000001
 30
0.0
 10
286.0612
 20
-97.66160000000001
 30
0.0
 10
290.5919
 20
-96.9335
 30
0.0
 10
290.5919
 20
-96.9335
 30
0.0
 10
290.5919
 20
-96.9335
 30
0.0
 10
290.5919
 20
-96.9335
 30
0.0
 10
286.0612
 20
-96.2052
 30
0.0
 10
286.0612
 20
-96.2052
 30
0.0
  0
SPLINE
  5
1D5
330
1F
100
AcDbEntity
  8
DEFPOINTS
370
    25
100
AcDbSpline
210
0.0
220
0.0
230
1.0
 70
     8
 71
     3
 72
    12
 73
     8
 74
     0
 42
0.0000000001
 43
0.0000000001
 40
0.0
 40
0.0
 40
0.0
 40
0.0
 40
0.5
 40
0.5
 40
0.5
 40
0.5
 40
1.0
 40
1.0
 40
1.0
 40
1.0
 10
217.6094
 20
-92.43399999999999
 30
0.0
 10
217.6094
 20
-92.43399999999999
 30
0.0
 10
220.639
 20
-92.43399999999999
 30
0.0
 10
220.639
 20
-92.43399999999999
 30
0.0
 10
220.639
 20
-92.43399999999999
 30
0.0
 10
220.639
 20
-92.43399999999999
 30
0.0
 10
218.4828
 20
-96.7514
 30
0.0
 10
218.4828
 20
-96.7514
 30
0.0
  0
SPLINE
  5
1D6
330
1F
100
AcDbEntity
  8
DEFPOINTS
370
    25
100
AcDbSpline
210
0.0
220
0.0
230
1.0
 70
     8
 71
     3
 72
    12
 73
     8
 74
     0
 42
0.0000000001
 43
0.0000000001
 40
0.0
 40
0.0
 40
0.0
 40
0.0
 40
0.5
 40
0.5
 40
0.5
 40
0.5
 40
1.0
 40
1.0
 40
1.0
 40
1.0
 10
224.078
 20
-92.43399999999999
 30
0.0
 10
224.078
 20
-92.43399999999999
 30
0.0
 10
221.9217
 20
-95.3209
 30
0.0
 10
221.9217
 20
-95.3209
 30
0.0
 10
221.9217
 20
-95.3209
 30
0.0
 10
221.9217
 20
-95.3209
 30
0.0
 10
225.1697
 20
-95.3209
 30
0.0
 10
225.1697
 20
-95.3209
 30
0.0
  0
SPLINE
  5
1D7
330
1F
100
AcDbEntity
  8
DEFPOINTS
370
    25
100
AcDbSpline
210
0.0
220
0.0
230
1.0
 70
    24
 71
     3
 72
     8
 73
     4
 74
     0
 42
0.0000000001
 43
0.0000000001
 40
0.0
 40
0.0
 40
0.0
 40
0.0
 40
1.0
 40
1.0
 40
1.0
 40
1.0
 10
224.078
 20
-92.43399999999999
 30
0.0
 10
224.078
 20
-92.43399999999999
 30
0.0
 10
224.078
 20
-96.7514
 30
0.0
 10
224.078
 20
-96.7514
 30
0.0
  0
SPLINE
  5
1D8
330
1F
100
AcDbEntity
  8
DEFPOINTS
370
    25
100
AcDbSpline
210
0.0
220
0.0
230
1.0
 70
     8
 71
     3
 72
    56
 73
    52
 74
     0
 42
0.0000000001
 43
0.0000000001
 40
0.0
 40
0.0
 40
0.0
 40
0.0
 40
0.0769230769230769
 40
0.0769230769230769
 40
0.0769230769230769
 40
0.0769230769230769
 40
0.1538461538461539
 40
0.1538461538461539
 40
0.1538461538461539
 40
0.1538461538461539
 40
0.2307692307692308
 40
0.2307692307692308
 40
0.2307692307692308
 40
0.2307692307692308
 40
0.3076923076923077
 40
0.3076923076923077
 40
0.3076923076923077
 40
0.3076923076923077
 40
0.3846153846153846
 40
0.3846153846153846
 40
0.3846153846153846
 40
0.3846153846153846
 40
0.4615384615384616
 40
0.4615384615384616
 40
0.4615384615384616
 40
0.4615384615384616
 40
0.5384615384615385
 40
0.5384615384615385
 40
0.5384615384615385
 40
0.5384615384615385
 40
0.6153846153846155
 40
0.6153846153846155
 40
0.6153846153846155
 40
0.6153846153846155
 40
0.6923076923076924
 40
0.6923076923076924
 40
0.6923076923076924
 40
0.6923076923076924
 40
0.7692307692307692
 40
0.7692307692307692
 40
0.7692307692307692
 40
0.7692307692307692
 40
0.8461538461538459
 40
0.8461538461538459
 40
0.8461538461538459
 40
0.8461538461538459
 40
0.9230769230769228
 40
0.9230769230769228
 40
0.9230769230769228
 40
0.9230769230769228
 40
1.0
 40
1.0
 40
1.0
 40
1.0
 10
226.4525
 20
-93.4744
 30
0.0
 10
226.4525
 20
-93.4744
 30
0.0
 10
226.4525
 20
-93.26640000000001
 30
0.0
 10
226.4525
 20
-93.26640000000001
 30
0.0
 10
226.4525
 20
-93.26640000000001
 30
0.0
 10
226.4525
 20
-93.26640000000001
 30
0.0
 10
226.6708
 20
-92.85020000000001
 30
0.0
 10
226.6708
 20
-92.85020000000001
 30
0.0
 10
226.6708
 20
-92.85020000000001
 30
0.0
 10
226.6708
 20
-92.85020000000001
 30
0.0
 10
226.8892
 20
-92.64219999999999
 30
0.0
 10
226.8892
 20
-92.64219999999999
 30
0.0
 10
226.8892
 20
-92.64219999999999
 30
0.0
 10
226.8892
 20
-92.64219999999999
 30
0.0
 10
227.3258
 20
-92.43399999999999
 30
0.0
 10
227.3258
 20
-92.43399999999999
 30
0.0
 10
227.3258
 20
-92.43399999999999
 30
0.0
 10
227.3258
 20
-92.43399999999999
 30
0.0
 10
228.172
 20
-92.43399999999999
 30
0.0
 10
228.172
 20
-92.43399999999999
 30
0.0
 10
228.172
 20
-92.43399999999999
 30
0.0
 10
228.172
 20
-92.43399999999999
 30
0.0
 10
228.6087
 20
-92.64219999999999
 30
0.0
 10
228.6087
 20
-92.64219999999999
 30
0.0
 10
228.6087
 20
-92.64219999999999
 30
0.0
 10
228.6087
 20
-92.64219999999999
 30
0.0
 10
228.827
 20
-92.85020000000001
 30
0.0
 10
228.827
 20
-92.85020000000001
 30
0.0
 10
228.827
 20
-92.85020000000001
 30
0.0
 10
228.827
 20
-92.85020000000001
 30
0.0
 10
229.0453
 20
-93.26640000000001
 30
0.0
 10
229.0453
 20
-93.26640000000001
 30
0.0
 10
229.0453
 20
-93.26640000000001
 30
0.0
 10
229.0453
 20
-93.26640000000001
 30
0.0
 10
229.0453
 20
-93.6824
 30
0.0
 10
229.0453
 20
-93.6824
 30
0.0
 10
229.0453
 20
-93.6824
 30
0.0
 10
229.0453
 20
-93.6824
 30
0.0
 10
228.827
 20
-94.0986
 30
0.0
 10
228.827
 20
-94.0986
 30
0.0
 10
228.827
 20
-94.0986
 30
0.0
 10
228.827
 20
-94.0986
 30
0.0
 10
228.3903
 20
-94.6967
 30
0.0
 10
228.3903
 20
-94.6967
 30
0.0
 10
228.3903
 20
-94.6967
 30
0.0
 10
228.3903
 20
-94.6967
 30
0.0
 10
226.2342
 20
-96.7514
 30
0.0
 10
226.2342
 20
-96.7514
 30
0.0
 10
226.2342
 20
-96.7514
 30
0.0
 10
226.2342
 20
-96.7514
 30
0.0
 10
229.2637
 20
-96.7514
 30
0.0
 10
229.2637
 20
-96.7514
 30
0.0
  0
SPLINE
  5
1D9
330
1F
100
AcDbEntity
  8
DEFPOINTS
370
    25
100
AcDbSpline
210
0.0
220
0.0
230
1.0
 70
    24
 71
     3
 72
     8
 73
     4
 74
     0
 42
0.0000000001
 43
0.0000000001
 40
0.0
 40
0.0
 40
0.0
 40
0.0
 40
1.0
 40
1.0
 40
1.0
 40
1.0
 10
155.7354
 20
-76.3353
 30
0.0
 10
155.7354
 20
-76.3353
 30
0.0
 10
155.7354
 20
-106.3222
 30
0.0
 10
155.7354
 20
-106.3222
 30
0.0
  0
SPLINE
  5
1DA
330
1F
100
AcDbEntity
  8
DEFPOINTS
370
    25
100
AcDbSpline
210
0.0
220
0.0
230
1.0
 70
    24
 71
     3
 72
     8
 73
     4
 74
     0
 42
0.0000000001
 43
0.0000000001
 40
0.0
 40
0.0
 40
0.0
 40
0.0
 40
1.0
 40
1.0
 40
1.0
 40
1.0
 10
291.1378
 20
-76.3353
 30
0.0
 10
291.1378
 20
-76.3353
 30
0.0
 10
291.1378
 20
-106.3222
 30
0.0
 10
291.1378
 20
-106.3222
 30
0.0
  0
SPLINE
  5
1DB
330
1F
100
AcDbEntity
  8
DEFPOINTS
370
    25
100
AcDbSpline
210
0.0
220
0.0
230
1.0
 70
    24
 71
     3
 72
     8
 73
     4
 74
     0
 42
0.0000000001
 43
0.0000000001
 40
0.0
 40
0.0
 40
0.0
 40
0.0
 40
1.0
 40
1.0
 40
1.0
 40
1.0
 10
160.266
 20
-104.1636
 30
0.0
 10
160.266
 20
-104.1636
 30
0.0
 10
286.607
 20
-104.1636
 30
0.0
 10
286.607
 20
-104.1636
 30
0.0
  0
SPLINE
  5
1DC
330
1F
100
AcDbEntity
  8
DEFPOINTS
100
AcDbSpline
210
0.0
220
0.0
230
1.0
 70
    11
 71
     3
 72
    16
 73
    12
 74
     0
 42
0.0000000001
 43
0.0000000001
 40
0.0
 40
0.0
 40
0.0
 40
0.0
 40
0.3333333333333333
 40
0.3333333333333333
 40
0.3333333333333333
 40
0.3333333333333333
 40
0.6666666666666666
 40
0.6666666666666666
 40
0.6666666666666666
 40
0.6666666666666666
 40
1.0
 40
1.0
 40
1.0
 40
1.0
 10
160.266
 20
-103.4353
 30
0.0
 10
160.266
 20
-103.4353
 30
0.0
 10
160.266
 20
-104.8919
 30
0.0
 10
160.266
 20
-104.8919
 30
0.0
 10
160.266
 20
-104.8919
 30
0.0
 10
160.266
 20
-104.8919
 30
0.0
 10
155.7354
 20
-104.1636
 30
0.0
 10
155.7354
 20
-104.1636
 30
0.0
 10
155.7354
 20
-104.1636
 30
0.0
 10
155.7354
 20
-104.1636
 30
0.0
 10
160.266
 20
-103.4353
 30
0.0
 10
160.266
 20
-103.4353
 30
0.0
  0
SPLINE
  5
1DD
330
1F
100
AcDbEntity
  8
DEFPOINTS
100
AcDbSpline
210
0.0
220
0.0
230
1.0
 70
    11
 71
     3
 72
    16
 73
    12
 74
     0
 42
0.0000000001
 43
0.0000000001
 40
0.0
 40
0.0
 40
0.0
 40
0.0
 40
0.3333333333333333
 40
0.3333333333333333
 40
0.3333333333333333
 40
0.3333333333333333
 40
0.6666666666666666
 40
0.6666666666666666
 40
0.6666666666666666
 40
0.6666666666666666
 40
1.0
 40
1.0
 40
1.0
 40
1.0
 10
286.607
 20
-103.4353
 30
0.0
 10
286.607
 20
-103.4353
 30
0.0
 10
286.607
 20
-104.8919
 30
0.0
 10
286.607
 20
-104.8919
 30
0.0
 10
286.607
 20
-104.8919
 30
0.0
 10
286.607
 20
-104.8919
 30
0.0
 10
291.1378
 20
-104.1636
 30
0.0
 10
291.1378
 20
-104.1636
 30
0.0
 10
291.1378
 20
-104.1636
 30
0.0
 10
291.1378
 20
-104.1636
 30
0.0
 10
286.607
 20
-103.4353
 30
0.0
 10
286.607
 20
-103.4353
 30
0.0
  0
SPLINE
  5
1DE
330
1F
100
AcDbEntity
  8
DEFPOINTS
370
    25
100
AcDbSpline
210
0.0
220
0.0
230
1.0
 70
     8
 71
     3
 72
    12
 73
     8
 74
     0
 42
0.0000000001
 43
0.0000000001
 40
0.0
 40
0.0
 40
0.0
 40
0.0
 40
0.5
 40
0.5
 40
0.5
 40
0.5
 40
1.0
 40
1.0
 40
1.0
 40
1.0
 10
217.6094
 20
-99.6902
 30
0.0
 10
217.6094
 20
-99.6902
 30
0.0
 10
220.639
 20
-99.6902
 30
0.0
 10
220.639
 20
-99.6902
 30
0.0
 10
220.639
 20
-99.6902
 30
0.0
 10
220.639
 20
-99.6902
 30
0.0
 10
218.4828
 20
-103.9815
 30
0.0
 10
218.4828
 20
-103.9815
 30
0.0
  0
SPLINE
  5
1DF
330
1F
100
AcDbEntity
  8
DEFPOINTS
370
    25
100
AcDbSpline
210
0.0
220
0.0
230
1.0
 70
     8
 71
     3
 72
    12
 73
     8
 74
     0
 42
0.0000000001
 43
0.0000000001
 40
0.0
 40
0.0
 40
0.0
 40
0.0
 40
0.5
 40
0.5
 40
0.5
 40
0.5
 40
1.0
 40
1.0
 40
1.0
 40
1.0
 10
224.078
 20
-99.6902
 30
0.0
 10
224.078
 20
-99.6902
 30
0.0
 10
221.9217
 20
-102.5512
 30
0.0
 10
221.9217
 20
-102.5512
 30
0.0
 10
221.9217
 20
-102.5512
 30
0.0
 10
221.9217
 20
-102.5512
 30
0.0
 10
225.1697
 20
-102.5512
 30
0.0
 10
225.1697
 20
-102.5512
 30
0.0
  0
SPLINE
  5
1E0
330
1F
100
AcDbEntity
  8
DEFPOINTS
370
    25
100
AcDbSpline
210
0.0
220
0.0
230
1.0
 70
    24
 71
     3
 72
     8
 73
     4
 74
     0
 42
0.0000000001
 43
0.0000000001
 40
0.0
 40
0.0
 40
0.0
 40
0.0
 40
1.0
 40
1.0
 40
1.0
 40
1.0
 10
224.078
 20
-99.6902
 30
0.0
 10
224.078
 20
-99.6902
 30
0.0
 10
224.078
 20
-103.9815
 30
0.0
 10
224.078
 20
-103.9815
 30
0.0
  0
SPLINE
  5
1E1
330
1F
100
AcDbEntity
  8
DEFPOINTS
370
    25
100
AcDbSpline
210
0.0
220
0.0
230
1.0
 70
    11
 71
     3
 72
    76
 73
    72
 74
     0
 42
0.0000000001
 43
0.0000000001
 40
0.0
 40
0.0
 40
0.0
 40
0.0
 40
0.0555555555555556
 40
0.0555555555555556
 40
0.0555555555555556
 40
0.0555555555555556
 40
0.1111111111111111
 40
0.1111111111111111
 40
0.1111111111111111
 40
0.1111111111111111
 40
0.1666666666666667
 40
0.1666666666666667
 40
0.1666666666666667
 40
0.1666666666666667
 40
0.2222222222222222
 40
0.2222222222222222
 40
0.2222222222222222
 40
0.2222222222222222
 40
0.2777777777777778
 40
0.2777777777777778
 40
0.2777777777777778
 40
0.2777777777777778
 40
0.3333333333333334
 40
0.3333333333333334
 40
0.3333333333333334
 40
0.3333333333333334
 40
0.3888888888888889
 40
0.3888888888888889
 40
0.3888888888888889
 40
0.3888888888888889
 40
0.4444444444444445
 40
0.4444444444444445
 40
0.4444444444444445
 40
0.4444444444444445
 40
0.5000000000000001
 40
0.5000000000000001
 40
0.5000000000000001
 40
0.5000000000000001
 40
0.5555555555555558
 40
0.5555555555555558
 40
0.5555555555555558
 40
0.5555555555555558
 40
0.6111111111111113
 40
0.6111111111111113
 40
0.6111111111111113
 40
0.6111111111111113
 40
0.6666666666666669
 40
0.6666666666666669
 40
0.6666666666666669
 40
0.6666666666666669
 40
0.7222222222222224
 40
0.7222222222222224
 40
0.7222222222222224
 40
0.7222222222222224
 40
0.7777777777777779
 40
0.7777777777777779
 40
0.7777777777777779
 40
0.7777777777777779
 40
0.8333333333333335
 40
0.8333333333333335
 40
0.8333333333333335
 40
0.8333333333333335
 40
0.8888888888888891
 40
0.8888888888888891
 40
0.8888888888888891
 40
0.8888888888888891
 40
0.9444444444444448
 40
0.9444444444444448
 40
0.9444444444444448
 40
0.9444444444444448
 40
1.0
 40
1.0
 40
1.0
 40
1.0
 10
227.3258
 20
-99.6902
 30
0.0
 10
227.3258
 20
-99.6902
 30
0.0
 10
226.6708
 20
-99.8723
 30
0.0
 10
226.6708
 20
-99.8723
 30
0.0
 10
226.6708
 20
-99.8723
 30
0.0
 10
225.7497
 20
-101.4731
 30
0.0
 10
227.6024
 20
-101.3196
 30
0.0
 10
228.6087
 20
-101.7449
 30
0.0
 10
228.6087
 20
-101.7449
 30
0.0
 10
228.6087
 20
-101.7449
 30
0.0
 10
229.0453
 20
-102.135
 30
0.0
 10
229.0453
 20
-102.135
 30
0.0
 10
229.0453
 20
-102.135
 30
0.0
 10
229.0453
 20
-102.135
 30
0.0
 10
229.2637
 20
-102.5512
 30
0.0
 10
229.2637
 20
-102.5512
 30
0.0
 10
229.2637
 20
-102.5512
 30
0.0
 10
229.2637
 20
-102.5512
 30
0.0
 10
229.2637
 20
-103.1753
 30
0.0
 10
229.2637
 20
-103.1753
 30
0.0
 10
229.2637
 20
-103.1753
 30
0.0
 10
229.2637
 20
-103.1753
 30
0.0
 10
229.0453
 20
-103.5914
 30
0.0
 10
229.0453
 20
-103.5914
 30
0.0
 10
229.0453
 20
-103.5914
 30
0.0
 10
229.0453
 20
-103.5914
 30
0.0
 10
228.827
 20
-103.7995
 30
0.0
 10
228.827
 20
-103.7995
 30
0.0
 10
228.827
 20
-103.7995
 30
0.0
 10
228.827
 20
-103.7995
 30
0.0
 10
228.172
 20
-103.9815
 30
0.0
 10
228.172
 20
-103.9815
 30
0.0
 10
228.172
 20
-103.9815
 30
0.0
 10
226.7163
 20
-104.2209
 30
0.0
 10
225.6801
 20
-103.3993
 30
0.0
 10
226.4525
 20
-102.135
 30
0.0
 10
226.4525
 20
-102.135
 30
0.0
 10
226.4525
 20
-102.135
 30
0.0
 10
226.8892
 20
-101.7449
 30
0.0
 10
226.8892
 20
-101.7449
 30
0.0
 10
226.8892
 20
-101.7449
 30
0.0
 10
226.8892
 20
-101.7449
 30
0.0
 10
227.5169
 20
-101.5369
 30
0.0
 10
227.5169
 20
-101.5369
 30
0.0
 10
227.5169
 20
-101.5369
 30
0.0
 10
227.5169
 20
-101.5369
 30
0.0
 10
228.3903
 20
-101.3287
 30
0.0
 10
228.3903
 20
-101.3287
 30
0.0
 10
228.3903
 20
-101.3287
 30
0.0
 10
228.3903
 20
-101.3287
 30
0.0
 10
228.827
 20
-101.1207
 30
0.0
 10
228.827
 20
-101.1207
 30
0.0
 10
228.827
 20
-101.1207
 30
0.0
 10
228.827
 20
-101.1207
 30
0.0
 10
229.0453
 20
-100.7045
 30
0.0
 10
229.0453
 20
-100.7045
 30
0.0
 10
229.0453
 20
-100.7045
 30
0.0
 10
229.0453
 20
-100.7045
 30
0.0
 10
229.0453
 20
-100.2885
 30
0.0
 10
229.0453
 20
-100.2885
 30
0.0
 10
229.0453
 20
-100.2885
 30
0.0
 10
229.0453
 20
-100.2885
 30
0.0
 10
228.827
 20
-99.8723
 30
0.0
 10
228.827
 20
-99.8723
 30
0.0
 10
228.827
 20
-99.8723
 30
0.0
 10
228.827
 20
-99.8723
 30
0.0
 10
228.172
 20
-99.6902
 30
0.0
 10
228.172
 20
-99.6902
 30
0.0
 10
228.172
 20
-99.6902
 30
0.0
 10
228.172
 20
-99.6902
 30
0.0
 10
227.3258
 20
-99.6902
 30
0.0
 10
227.3258
 20
-99.6902
 30
0.0
  0
TEXT
  5
1E3
330
1F
100
AcDbEntity
  8
DEFPOINTS
100
AcDbText
 10
195.1004
 20
22.6292
 30
0.0
 40
6.096023999999998
  1
FH 008
 51
-0.0000015352345087
  7
4
100
AcDbText
  0
TEXT
  5
1E4
330
1F
100
AcDbEntity
  8
DEFPOINTS
100
AcDbText
 10
228.5104
 20
22.6292
 30
0.0
 40
6.096023999999998
  1
ANR3321C
 51
-0.0000015352345087
  7
4
100
AcDbText
  0
TEXT
  5
1E6
330
1F
100
AcDbEntity
  8
DEFPOINTS
 62
   250
100
AcDbText
 10
224.277
 20
22.6292
 30
0.0
 40
6.096023999999998
  1
 
 51
-0.0000015352345087
  7
5
100
AcDbText
  0
SPLINE
  5
1E7
330
1F
100
AcDbEntity
  8
DEFPOINTS
370
    25
100
AcDbSpline
210
0.0
220
0.0
230
1.0
 70
    24
 71
     3
 72
     8
 73
     4
 74
     0
 42
0.0000000001
 43
0.0000000001
 40
0.0
 40
0.0
 40
0.0
 40
0.0
 40
1.0
 40
1.0
 40
1.0
 40
1.0
 10
201.5275
 20
-44.8898
 30
0.0
 10
201.5275
 20
-44.8898
 30
0.0
 10
201.5275
 20
-26.6235
 30
0.0
 10
201.5275
 20
-26.6235
 30
0.0
  0
SPLINE
  5
1E8
330
1F
100
AcDbEntity
  8
DEFPOINTS
370
    25
100
AcDbSpline
210
0.0
220
0.0
230
1.0
 70
     8
 71
     3
 72
    16
 73
    12
 74
     0
 42
0.0000000001
 43
0.0000000001
 40
0.0
 40
0.0
 40
0.0
 40
0.0
 40
0.3333333333333333
 40
0.3333333333333333
 40
0.3333333333333333
 40
0.3333333333333333
 40
0.6666666666666666
 40
0.6666666666666666
 40
0.6666666666666666
 40
0.6666666666666666
 40
1.0
 40
1.0
 40
1.0
 40
1.0
 10
239.6614
 20
-48.0987
 30
0.0
 10
239.6614
 20
-48.0987
 30
0.0
 10
237.2563
 20
-48.0987
 30
0.0
 10
237.2563
 20
-48.0987
 30
0.0
 10
237.2563
 20
-48.0987
 30
0.0
 10
237.2563
 20
-48.0987
 30
0.0
 10
237.2563
 20
-49.314
 30
0.0
 10
237.2563
 20
-49.314
 30
0.0
 10
237.2563
 20
-49.314
 30
0.0
 10
237.2563
 20
-49.314
 30
0.0
 10
201.5022
 20
-49.314
 30
0.0
 10
201.5022
 20
-49.314
 30
0.0
  0
SPLINE
  5
1E9
330
1F
100
AcDbEntity
  8
DEFPOINTS
370
    25
100
AcDbSpline
210
0.0
220
0.0
230
1.0
 70
    24
 71
     3
 72
     8
 73
     4
 74
     0
 42
0.0000000001
 43
0.0000000001
 40
0.0
 40
0.0
 40
0.0
 40
0.0
 40
1.0
 40
1.0
 40
1.0
 40
1.0
 10
199.0971
 20
-48.0987
 30
0.0
 10
199.0971
 20
-48.0987
 30
0.0
 10
201.5022
 20
-48.0987
 30
0.0
 10
201.5022
 20
-48.0987
 30
0.0
  0
SPLINE
  5
1EA
330
1F
100
AcDbEntity
  8
DEFPOINTS
370
    25
100
AcDbSpline
210
0.0
220
0.0
230
1.0
 70
    24
 71
     3
 72
     8
 73
     4
 74
     0
 42
0.0000000001
 43
0.0000000001
 40
0.0
 40
0.0
 40
0.0
 40
0.0
 40
1.0
 40
1.0
 40
1.0
 40
1.0
 10
199.1666999999999
 20
-48.0354
 30
0.0
 10
199.1666999999999
 20
-48.0354
 30
0.0
 10
200.0022
 20
-46.92779999999999
 30
0.0
 10
200.0022
 20
-46.92779999999999
 30
0.0
  0
SPLINE
  5
1EB
330
1F
100
AcDbEntity
  8
DEFPOINTS
370
    25
100
AcDbSpline
210
0.0
220
0.0
230
1.0
 70
    24
 71
     3
 72
     8
 73
     4
 74
     0
 42
0.0000000001
 43
0.0000000001
 40
0.0
 40
0.0
 40
0.0
 40
0.0
 40
1.0
 40
1.0
 40
1.0
 40
1.0
 10
238.7563
 20
-46.93419999999999
 30
0.0
 10
238.7563
 20
-46.93419999999999
 30
0.0
 10
238.7943
 20
-46.98479999999999
 30
0.0
 10
238.7943
 20
-46.98479999999999
 30
0.0
  0
SPLINE
  5
1EC
330
1F
100
AcDbEntity
  8
DEFPOINTS
370
    25
100
AcDbSpline
210
0.0
220
0.0
230
1.0
 70
    24
 71
     3
 72
     8
 73
     4
 74
     0
 42
0.0000000001
 43
0.0000000001
 40
0.0
 40
0.0
 40
0.0
 40
0.0
 40
1.0
 40
1.0
 40
1.0
 40
1.0
 10
238.8133
 20
-47.0164
 30
0.0
 10
238.8133
 20
-47.0164
 30
0.0
 10
238.8576
 20
-47.0671
 30
0.0
 10
238.8576
 20
-47.0671
 30
0.0
  0
SPLINE
  5
1ED
330
1F
100
AcDbEntity
  8
DEFPOINTS
370
    25
100
AcDbSpline
210
0.0
220
0.0
230
1.0
 70
    24
 71
     3
 72
     8
 73
     4
 74
     0
 42
0.0000000001
 43
0.0000000001
 40
0.0
 40
0.0
 40
0.0
 40
0.0
 40
1.0
 40
1.0
 40
1.0
 40
1.0
 10
238.8766
 20
-47.0924
 30
0.0
 10
238.8766
 20
-47.0924
 30
0.0
 10
238.9209
 20
-47.1494
 30
0.0
 10
238.9209
 20
-47.1494
 30
0.0
  0
SPLINE
  5
1EE
330
1F
100
AcDbEntity
  8
DEFPOINTS
370
    25
100
AcDbSpline
210
0.0
220
0.0
230
1.0
 70
    24
 71
     3
 72
     8
 73
     4
 74
     0
 42
0.0000000001
 43
0.0000000001
 40
0.0
 40
0.0
 40
0.0
 40
0.0
 40
1.0
 40
1.0
 40
1.0
 40
1.0
 10
238.9399
 20
-47.1747
 30
0.0
 10
238.9399
 20
-47.1747
 30
0.0
 10
238.9778
 20
-47.2316
 30
0.0
 10
238.9778
 20
-47.2316
 30
0.0
  0
SPLINE
  5
1EF
330
1F
100
AcDbEntity
  8
DEFPOINTS
370
    25
100
AcDbSpline
210
0.0
220
0.0
230
1.0
 70
    24
 71
     3
 72
     8
 73
     4
 74
     0
 42
0.0000000001
 43
0.0000000001
 40
0.0
 40
0.0
 40
0.0
 40
0.0
 40
1.0
 40
1.0
 40
1.0
 40
1.0
 10
238.9968
 20
-47.2569
 30
0.0
 10
238.9968
 20
-47.2569
 30
0.0
 10
239.0411
 20
-47.3076
 30
0.0
 10
239.0411
 20
-47.3076
 30
0.0
  0
SPLINE
  5
1F0
330
1F
100
AcDbEntity
  8
DEFPOINTS
370
    25
100
AcDbSpline
210
0.0
220
0.0
230
1.0
 70
    24
 71
     3
 72
     8
 73
     4
 74
     0
 42
0.0000000001
 43
0.0000000001
 40
0.0
 40
0.0
 40
0.0
 40
0.0
 40
1.0
 40
1.0
 40
1.0
 40
1.0
 10
239.0601
 20
-47.3392
 30
0.0
 10
239.0601
 20
-47.3392
 30
0.0
 10
239.1044
 20
-47.3899
 30
0.0
 10
239.1044
 20
-47.3899
 30
0.0
  0
SPLINE
  5
1F1
330
1F
100
AcDbEntity
  8
DEFPOINTS
370
    25
100
AcDbSpline
210
0.0
220
0.0
230
1.0
 70
    24
 71
     3
 72
     8
 73
     4
 74
     0
 42
0.0000000001
 43
0.0000000001
 40
0.0
 40
0.0
 40
0.0
 40
0.0
 40
1.0
 40
1.0
 40
1.0
 40
1.0
 10
239.1234
 20
-47.4152
 30
0.0
 10
239.1234
 20
-47.4152
 30
0.0
 10
239.1614
 20
-47.47209999999999
 30
0.0
 10
239.1614
 20
-47.47209999999999
 30
0.0
  0
SPLINE
  5
1F2
330
1F
100
AcDbEntity
  8
DEFPOINTS
370
    25
100
AcDbSpline
210
0.0
220
0.0
230
1.0
 70
    24
 71
     3
 72
     8
 73
     4
 74
     0
 42
0.0000000001
 43
0.0000000001
 40
0.0
 40
0.0
 40
0.0
 40
0.0
 40
1.0
 40
1.0
 40
1.0
 40
1.0
 10
239.1804
 20
-47.4974
 30
0.0
 10
239.1804
 20
-47.4974
 30
0.0
 10
239.2247
 20
-47.5544
 30
0.0
 10
239.2247
 20
-47.5544
 30
0.0
  0
SPLINE
  5
1F3
330
1F
100
AcDbEntity
  8
DEFPOINTS
370
    25
100
AcDbSpline
210
0.0
220
0.0
230
1.0
 70
    24
 71
     3
 72
     8
 73
     4
 74
     0
 42
0.0000000001
 43
0.0000000001
 40
0.0
 40
0.0
 40
0.0
 40
0.0
 40
1.0
 40
1.0
 40
1.0
 40
1.0
 10
239.2437
 20
-47.5797
 30
0.0
 10
239.2437
 20
-47.5797
 30
0.0
 10
239.2817
 20
-47.6304
 30
0.0
 10
239.2817
 20
-47.6304
 30
0.0
  0
SPLINE
  5
1F4
330
1F
100
AcDbEntity
  8
DEFPOINTS
370
    25
100
AcDbSpline
210
0.0
220
0.0
230
1.0
 70
    24
 71
     3
 72
     8
 73
     4
 74
     0
 42
0.0000000001
 43
0.0000000001
 40
0.0
 40
0.0
 40
0.0
 40
0.0
 40
1.0
 40
1.0
 40
1.0
 40
1.0
 10
239.307
 20
-47.662
 30
0.0
 10
239.307
 20
-47.662
 30
0.0
 10
239.345
 20
-47.7127
 30
0.0
 10
239.345
 20
-47.7127
 30
0.0
  0
SPLINE
  5
1F5
330
1F
100
AcDbEntity
  8
DEFPOINTS
370
    25
100
AcDbSpline
210
0.0
220
0.0
230
1.0
 70
    24
 71
     3
 72
     8
 73
     4
 74
     0
 42
0.0000000001
 43
0.0000000001
 40
0.0
 40
0.0
 40
0.0
 40
0.0
 40
1.0
 40
1.0
 40
1.0
 40
1.0
 10
239.3639
 20
-47.738
 30
0.0
 10
239.3639
 20
-47.738
 30
0.0
 10
239.4082
 20
-47.7949
 30
0.0
 10
239.4082
 20
-47.7949
 30
0.0
  0
SPLINE
  5
1F6
330
1F
100
AcDbEntity
  8
DEFPOINTS
370
    25
100
AcDbSpline
210
0.0
220
0.0
230
1.0
 70
    24
 71
     3
 72
     8
 73
     4
 74
     0
 42
0.0000000001
 43
0.0000000001
 40
0.0
 40
0.0
 40
0.0
 40
0.0
 40
1.0
 40
1.0
 40
1.0
 40
1.0
 10
239.4272
 20
-47.8202
 30
0.0
 10
239.4272
 20
-47.8202
 30
0.0
 10
239.4652
 20
-47.8772
 30
0.0
 10
239.4652
 20
-47.8772
 30
0.0
  0
SPLINE
  5
1F7
330
1F
100
AcDbEntity
  8
DEFPOINTS
370
    25
100
AcDbSpline
210
0.0
220
0.0
230
1.0
 70
    24
 71
     3
 72
     8
 73
     4
 74
     0
 42
0.0000000001
 43
0.0000000001
 40
0.0
 40
0.0
 40
0.0
 40
0.0
 40
1.0
 40
1.0
 40
1.0
 40
1.0
 10
239.4905
 20
-47.9025
 30
0.0
 10
239.4905
 20
-47.9025
 30
0.0
 10
239.5285
 20
-47.9532
 30
0.0
 10
239.5285
 20
-47.9532
 30
0.0
  0
SPLINE
  5
1F8
330
1F
100
AcDbEntity
  8
DEFPOINTS
370
    25
100
AcDbSpline
210
0.0
220
0.0
230
1.0
 70
    24
 71
     3
 72
     8
 73
     4
 74
     0
 42
0.0000000001
 43
0.0000000001
 40
0.0
 40
0.0
 40
0.0
 40
0.0
 40
1.0
 40
1.0
 40
1.0
 40
1.0
 10
239.5475
 20
-47.9848
 30
0.0
 10
239.5475
 20
-47.9848
 30
0.0
 10
239.5918
 20
-48.0354
 30
0.0
 10
239.5918
 20
-48.0354
 30
0.0
  0
SPLINE
  5
1F9
330
1F
100
AcDbEntity
  8
DEFPOINTS
370
    25
100
AcDbSpline
210
0.0
220
0.0
230
1.0
 70
    24
 71
     3
 72
     8
 73
     4
 74
     0
 42
0.0000000001
 43
0.0000000001
 40
0.0
 40
0.0
 40
0.0
 40
0.0
 40
1.0
 40
1.0
 40
1.0
 40
1.0
 10
238.7563
 20
-23.4905
 30
0.0
 10
238.7563
 20
-23.4905
 30
0.0
 10
238.7563
 20
-24.6678
 30
0.0
 10
238.7563
 20
-24.6678
 30
0.0
  0
SPLINE
  5
1FA
330
1F
100
AcDbEntity
  8
DEFPOINTS
370
    25
100
AcDbSpline
210
0.0
220
0.0
230
1.0
 70
    24
 71
     3
 72
     8
 73
     4
 74
     0
 42
0.0000000001
 43
0.0000000001
 40
0.0
 40
0.0
 40
0.0
 40
0.0
 40
1.0
 40
1.0
 40
1.0
 40
1.0
 10
238.7563
 20
-25.5096
 30
0.0
 10
238.7563
 20
-25.5096
 30
0.0
 10
238.7563
 20
-27.1995
 30
0.0
 10
238.7563
 20
-27.1995
 30
0.0
  0
SPLINE
  5
1FB
330
1F
100
AcDbEntity
  8
DEFPOINTS
370
    25
100
AcDbSpline
210
0.0
220
0.0
230
1.0
 70
    24
 71
     3
 72
     8
 73
     4
 74
     0
 42
0.0000000001
 43
0.0000000001
 40
0.0
 40
0.0
 40
0.0
 40
0.0
 40
1.0
 40
1.0
 40
1.0
 40
1.0
 10
238.7563
 20
-28.0413
 30
0.0
 10
238.7563
 20
-28.0413
 30
0.0
 10
238.7563
 20
-29.7312
 30
0.0
 10
238.7563
 20
-29.7312
 30
0.0
  0
SPLINE
  5
1FC
330
1F
100
AcDbEntity
  8
DEFPOINTS
370
    25
100
AcDbSpline
210
0.0
220
0.0
230
1.0
 70
    24
 71
     3
 72
     8
 73
     4
 74
     0
 42
0.0000000001
 43
0.0000000001
 40
0.0
 40
0.0
 40
0.0
 40
0.0
 40
1.0
 40
1.0
 40
1.0
 40
1.0
 10
238.7563
 20
-30.573
 30
0.0
 10
238.7563
 20
-30.573
 30
0.0
 10
238.7563
 20
-32.2566
 30
0.0
 10
238.7563
 20
-32.2566
 30
0.0
  0
SPLINE
  5
1FD
330
1F
100
AcDbEntity
  8
DEFPOINTS
370
    25
100
AcDbSpline
210
0.0
220
0.0
230
1.0
 70
    24
 71
     3
 72
     8
 73
     4
 74
     0
 42
0.0000000001
 43
0.0000000001
 40
0.0
 40
0.0
 40
0.0
 40
0.0
 40
1.0
 40
1.0
 40
1.0
 40
1.0
 10
238.7563
 20
-33.1047
 30
0.0
 10
238.7563
 20
-33.1047
 30
0.0
 10
238.7563
 20
-34.7883
 30
0.0
 10
238.7563
 20
-34.7883
 30
0.0
  0
SPLINE
  5
1FE
330
1F
100
AcDbEntity
  8
DEFPOINTS
370
    25
100
AcDbSpline
210
0.0
220
0.0
230
1.0
 70
    24
 71
     3
 72
     8
 73
     4
 74
     0
 42
0.0000000001
 43
0.0000000001
 40
0.0
 40
0.0
 40
0.0
 40
0.0
 40
1.0
 40
1.0
 40
1.0
 40
1.0
 10
238.7563
 20
-35.6301
 30
0.0
 10
238.7563
 20
-35.6301
 30
0.0
 10
238.7563
 20
-37.32
 30
0.0
 10
238.7563
 20
-37.32
 30
0.0
  0
SPLINE
  5
1FF
330
1F
100
AcDbEntity
  8
DEFPOINTS
370
    25
100
AcDbSpline
210
0.0
220
0.0
230
1.0
 70
    24
 71
     3
 72
     8
 73
     4
 74
     0
 42
0.0000000001
 43
0.0000000001
 40
0.0
 40
0.0
 40
0.0
 40
0.0
 40
1.0
 40
1.0
 40
1.0
 40
1.0
 10
238.7563
 20
-38.1618
 30
0.0
 10
238.7563
 20
-38.1618
 30
0.0
 10
238.7563
 20
-39.8517
 30
0.0
 10
238.7563
 20
-39.8517
 30
0.0
  0
SPLINE
  5
200
330
1F
100
AcDbEntity
  8
DEFPOINTS
370
    25
100
AcDbSpline
210
0.0
220
0.0
230
1.0
 70
    24
 71
     3
 72
     8
 73
     4
 74
     0
 42
0.0000000001
 43
0.0000000001
 40
0.0
 40
0.0
 40
0.0
 40
0.0
 40
1.0
 40
1.0
 40
1.0
 40
1.0
 10
238.7563
 20
-40.6935
 30
0.0
 10
238.7563
 20
-40.6935
 30
0.0
 10
238.7563
 20
-42.37709999999999
 30
0.0
 10
238.7563
 20
-42.37709999999999
 30
0.0
  0
SPLINE
  5
201
330
1F
100
AcDbEntity
  8
DEFPOINTS
370
    25
100
AcDbSpline
210
0.0
220
0.0
230
1.0
 70
    24
 71
     3
 72
     8
 73
     4
 74
     0
 42
0.0000000001
 43
0.0000000001
 40
0.0
 40
0.0
 40
0.0
 40
0.0
 40
1.0
 40
1.0
 40
1.0
 40
1.0
 10
238.7563
 20
-43.22519999999999
 30
0.0
 10
238.7563
 20
-43.22519999999999
 30
0.0
 10
238.7563
 20
-44.90879999999999
 30
0.0
 10
238.7563
 20
-44.90879999999999
 30
0.0
  0
SPLINE
  5
202
330
1F
100
AcDbEntity
  8
DEFPOINTS
370
    25
100
AcDbSpline
210
0.0
220
0.0
230
1.0
 70
    24
 71
     3
 72
     8
 73
     4
 74
     0
 42
0.0000000001
 43
0.0000000001
 40
0.0
 40
0.0
 40
0.0
 40
0.0
 40
1.0
 40
1.0
 40
1.0
 40
1.0
 10
238.7563
 20
-45.75059999999999
 30
0.0
 10
238.7563
 20
-45.75059999999999
 30
0.0
 10
238.7563
 20
-46.93419999999999
 30
0.0
 10
238.7563
 20
-46.93419999999999
 30
0.0
  0
SPLINE
  5
203
330
1F
100
AcDbEntity
  8
DEFPOINTS
370
    25
100
AcDbSpline
210
0.0
220
0.0
230
1.0
 70
    24
 71
     3
 72
     8
 73
     4
 74
     0
 42
0.0000000001
 43
0.0000000001
 40
0.0
 40
0.0
 40
0.0
 40
0.0
 40
1.0
 40
1.0
 40
1.0
 40
1.0
 10
200.0022
 20
-46.92779999999999
 30
0.0
 10
200.0022
 20
-46.92779999999999
 30
0.0
 10
200.0022
 20
-45.71889999999999
 30
0.0
 10
200.0022
 20
-45.71889999999999
 30
0.0
  0
SPLINE
  5
204
330
1F
100
AcDbEntity
  8
DEFPOINTS
370
    25
100
AcDbSpline
210
0.0
220
0.0
230
1.0
 70
    24
 71
     3
 72
     8
 73
     4
 74
     0
 42
0.0000000001
 43
0.0000000001
 40
0.0
 40
0.0
 40
0.0
 40
0.0
 40
1.0
 40
1.0
 40
1.0
 40
1.0
 10
200.0022
 20
-44.8708
 30
0.0
 10
200.0022
 20
-44.8708
 30
0.0
 10
200.0022
 20
-43.18719999999999
 30
0.0
 10
200.0022
 20
-43.18719999999999
 30
0.0
  0
SPLINE
  5
205
330
1F
100
AcDbEntity
  8
DEFPOINTS
370
    25
100
AcDbSpline
210
0.0
220
0.0
230
1.0
 70
    24
 71
     3
 72
     8
 73
     4
 74
     0
 42
0.0000000001
 43
0.0000000001
 40
0.0
 40
0.0
 40
0.0
 40
0.0
 40
1.0
 40
1.0
 40
1.0
 40
1.0
 10
200.0022
 20
-42.34539999999999
 30
0.0
 10
200.0022
 20
-42.34539999999999
 30
0.0
 10
200.0022
 20
-40.6555
 30
0.0
 10
200.0022
 20
-40.6555
 30
0.0
  0
SPLINE
  5
206
330
1F
100
AcDbEntity
  8
DEFPOINTS
370
    25
100
AcDbSpline
210
0.0
220
0.0
230
1.0
 70
    24
 71
     3
 72
     8
 73
     4
 74
     0
 42
0.0000000001
 43
0.0000000001
 40
0.0
 40
0.0
 40
0.0
 40
0.0
 40
1.0
 40
1.0
 40
1.0
 40
1.0
 10
200.0022
 20
-39.8137
 30
0.0
 10
200.0022
 20
-39.8137
 30
0.0
 10
200.0022
 20
-38.1238
 30
0.0
 10
200.0022
 20
-38.1238
 30
0.0
  0
SPLINE
  5
207
330
1F
100
AcDbEntity
  8
DEFPOINTS
370
    25
100
AcDbSpline
210
0.0
220
0.0
230
1.0
 70
    24
 71
     3
 72
     8
 73
     4
 74
     0
 42
0.0000000001
 43
0.0000000001
 40
0.0
 40
0.0
 40
0.0
 40
0.0
 40
1.0
 40
1.0
 40
1.0
 40
1.0
 10
200.0022
 20
-37.282
 30
0.0
 10
200.0022
 20
-37.282
 30
0.0
 10
200.0022
 20
-35.5984
 30
0.0
 10
200.0022
 20
-35.5984
 30
0.0
  0
SPLINE
  5
208
330
1F
100
AcDbEntity
  8
DEFPOINTS
370
    25
100
AcDbSpline
210
0.0
220
0.0
230
1.0
 70
    24
 71
     3
 72
     8
 73
     4
 74
     0
 42
0.0000000001
 43
0.0000000001
 40
0.0
 40
0.0
 40
0.0
 40
0.0
 40
1.0
 40
1.0
 40
1.0
 40
1.0
 10
200.0022
 20
-34.7503
 30
0.0
 10
200.0022
 20
-34.7503
 30
0.0
 10
200.0022
 20
-33.0667
 30
0.0
 10
200.0022
 20
-33.0667
 30
0.0
  0
SPLINE
  5
209
330
1F
100
AcDbEntity
  8
DEFPOINTS
370
    25
100
AcDbSpline
210
0.0
220
0.0
230
1.0
 70
    24
 71
     3
 72
     8
 73
     4
 74
     0
 42
0.0000000001
 43
0.0000000001
 40
0.0
 40
0.0
 40
0.0
 40
0.0
 40
1.0
 40
1.0
 40
1.0
 40
1.0
 10
200.0022
 20
-32.2249
 30
0.0
 10
200.0022
 20
-32.2249
 30
0.0
 10
200.0022
 20
-30.535
 30
0.0
 10
200.0022
 20
-30.535
 30
0.0
  0
SPLINE
  5
20A
330
1F
100
AcDbEntity
  8
DEFPOINTS
370
    25
100
AcDbSpline
210
0.0
220
0.0
230
1.0
 70
    24
 71
     3
 72
     8
 73
     4
 74
     0
 42
0.0000000001
 43
0.0000000001
 40
0.0
 40
0.0
 40
0.0
 40
0.0
 40
1.0
 40
1.0
 40
1.0
 40
1.0
 10
200.0022
 20
-29.6932
 30
0.0
 10
200.0022
 20
-29.6932
 30
0.0
 10
200.0022
 20
-28.0033
 30
0.0
 10
200.0022
 20
-28.0033
 30
0.0
  0
SPLINE
  5
20B
330
1F
100
AcDbEntity
  8
DEFPOINTS
370
    25
100
AcDbSpline
210
0.0
220
0.0
230
1.0
 70
    24
 71
     3
 72
     8
 73
     4
 74
     0
 42
0.0000000001
 43
0.0000000001
 40
0.0
 40
0.0
 40
0.0
 40
0.0
 40
1.0
 40
1.0
 40
1.0
 40
1.0
 10
200.0022
 20
-27.1615
 30
0.0
 10
200.0022
 20
-27.1615
 30
0.0
 10
200.0022
 20
-25.4779
 30
0.0
 10
200.0022
 20
-25.4779
 30
0.0
  0
SPLINE
  5
20C
330
1F
100
AcDbEntity
  8
DEFPOINTS
370
    25
100
AcDbSpline
210
0.0
220
0.0
230
1.0
 70
    24
 71
     3
 72
     8
 73
     4
 74
     0
 42
0.0000000001
 43
0.0000000001
 40
0.0
 40
0.0
 40
0.0
 40
0.0
 40
1.0
 40
1.0
 40
1.0
 40
1.0
 10
200.0022
 20
-24.6298
 30
0.0
 10
200.0022
 20
-24.6298
 30
0.0
 10
200.0022
 20
-23.4209
 30
0.0
 10
200.0022
 20
-23.4209
 30
0.0
  0
SPLINE
  5
20D
330
1F
100
AcDbEntity
  8
DEFPOINTS
370
    25
100
AcDbSpline
210
0.0
220
0.0
230
1.0
 70
    24
 71
     3
 72
     8
 73
     4
 74
     0
 42
0.0000000001
 43
0.0000000001
 40
0.0
 40
0.0
 40
0.0
 40
0.0
 40
1.0
 40
1.0
 40
1.0
 40
1.0
 10
199.1666999999999
 20
-48.0354
 30
0.0
 10
199.1666999999999
 20
-48.0354
 30
0.0
 10
199.2047
 20
-47.97849999999999
 30
0.0
 10
199.2047
 20
-47.97849999999999
 30
0.0
  0
SPLINE
  5
20E
330
1F
100
AcDbEntity
  8
DEFPOINTS
370
    25
100
AcDbSpline
210
0.0
220
0.0
230
1.0
 70
    24
 71
     3
 72
     8
 73
     4
 74
     0
 42
0.0000000001
 43
0.0000000001
 40
0.0
 40
0.0
 40
0.0
 40
0.0
 40
1.0
 40
1.0
 40
1.0
 40
1.0
 10
199.23
 20
-47.9532
 30
0.0
 10
199.23
 20
-47.9532
 30
0.0
 10
199.268
 20
-47.9025
 30
0.0
 10
199.268
 20
-47.9025
 30
0.0
  0
SPLINE
  5
20F
330
1F
100
AcDbEntity
  8
DEFPOINTS
370
    25
100
AcDbSpline
210
0.0
220
0.0
230
1.0
 70
    24
 71
     3
 72
     8
 73
     4
 74
     0
 42
0.0000000001
 43
0.0000000001
 40
0.0
 40
0.0
 40
0.0
 40
0.0
 40
1.0
 40
1.0
 40
1.0
 40
1.0
 10
199.287
 20
-47.8709
 30
0.0
 10
199.287
 20
-47.8709
 30
0.0
 10
199.3313
 20
-47.8202
 30
0.0
 10
199.3313
 20
-47.8202
 30
0.0
  0
SPLINE
  5
210
330
1F
100
AcDbEntity
  8
DEFPOINTS
370
    25
100
AcDbSpline
210
0.0
220
0.0
230
1.0
 70
    24
 71
     3
 72
     8
 73
     4
 74
     0
 42
0.0000000001
 43
0.0000000001
 40
0.0
 40
0.0
 40
0.0
 40
0.0
 40
1.0
 40
1.0
 40
1.0
 40
1.0
 10
199.3503
 20
-47.7949
 30
0.0
 10
199.3503
 20
-47.7949
 30
0.0
 10
199.3883
 20
-47.738
 30
0.0
 10
199.3883
 20
-47.738
 30
0.0
  0
SPLINE
  5
211
330
1F
100
AcDbEntity
  8
DEFPOINTS
370
    25
100
AcDbSpline
210
0.0
220
0.0
230
1.0
 70
    24
 71
     3
 72
     8
 73
     4
 74
     0
 42
0.0000000001
 43
0.0000000001
 40
0.0
 40
0.0
 40
0.0
 40
0.0
 40
1.0
 40
1.0
 40
1.0
 40
1.0
 10
199.4072
 20
-47.7127
 30
0.0
 10
199.4072
 20
-47.7127
 30
0.0
 10
199.4516
 20
-47.6557
 30
0.0
 10
199.4516
 20
-47.6557
 30
0.0
  0
SPLINE
  5
212
330
1F
100
AcDbEntity
  8
DEFPOINTS
370
    25
100
AcDbSpline
210
0.0
220
0.0
230
1.0
 70
    24
 71
     3
 72
     8
 73
     4
 74
     0
 42
0.0000000001
 43
0.0000000001
 40
0.0
 40
0.0
 40
0.0
 40
0.0
 40
1.0
 40
1.0
 40
1.0
 40
1.0
 10
199.4705
 20
-47.6304
 30
0.0
 10
199.4705
 20
-47.6304
 30
0.0
 10
199.5085
 20
-47.5797
 30
0.0
 10
199.5085
 20
-47.5797
 30
0.0
  0
SPLINE
  5
213
330
1F
100
AcDbEntity
  8
DEFPOINTS
370
    25
100
AcDbSpline
210
0.0
220
0.0
230
1.0
 70
    24
 71
     3
 72
     8
 73
     4
 74
     0
 42
0.0000000001
 43
0.0000000001
 40
0.0
 40
0.0
 40
0.0
 40
0.0
 40
1.0
 40
1.0
 40
1.0
 40
1.0
 10
199.5338
 20
-47.54809999999999
 30
0.0
 10
199.5338
 20
-47.54809999999999
 30
0.0
 10
199.5718
 20
-47.4974
 30
0.0
 10
199.5718
 20
-47.4974
 30
0.0
  0
SPLINE
  5
214
330
1F
100
AcDbEntity
  8
DEFPOINTS
370
    25
100
AcDbSpline
210
0.0
220
0.0
230
1.0
 70
    24
 71
     3
 72
     8
 73
     4
 74
     0
 42
0.0000000001
 43
0.0000000001
 40
0.0
 40
0.0
 40
0.0
 40
0.0
 40
1.0
 40
1.0
 40
1.0
 40
1.0
 10
199.5908
 20
-47.47209999999999
 30
0.0
 10
199.5908
 20
-47.47209999999999
 30
0.0
 10
199.6351
 20
-47.4152
 30
0.0
 10
199.6351
 20
-47.4152
 30
0.0
  0
SPLINE
  5
215
330
1F
100
AcDbEntity
  8
DEFPOINTS
370
    25
100
AcDbSpline
210
0.0
220
0.0
230
1.0
 70
    24
 71
     3
 72
     8
 73
     4
 74
     0
 42
0.0000000001
 43
0.0000000001
 40
0.0
 40
0.0
 40
0.0
 40
0.0
 40
1.0
 40
1.0
 40
1.0
 40
1.0
 10
199.6541
 20
-47.3899
 30
0.0
 10
199.6541
 20
-47.3899
 30
0.0
 10
199.6921
 20
-47.3329
 30
0.0
 10
199.6921
 20
-47.3329
 30
0.0
  0
SPLINE
  5
216
330
1F
100
AcDbEntity
  8
DEFPOINTS
370
    25
100
AcDbSpline
210
0.0
220
0.0
230
1.0
 70
    24
 71
     3
 72
     8
 73
     4
 74
     0
 42
0.0000000001
 43
0.0000000001
 40
0.0
 40
0.0
 40
0.0
 40
0.0
 40
1.0
 40
1.0
 40
1.0
 40
1.0
 10
199.7174
 20
-47.3076
 30
0.0
 10
199.7174
 20
-47.3076
 30
0.0
 10
199.7554
 20
-47.2506
 30
0.0
 10
199.7554
 20
-47.2506
 30
0.0
  0
SPLINE
  5
217
330
1F
100
AcDbEntity
  8
DEFPOINTS
370
    25
100
AcDbSpline
210
0.0
220
0.0
230
1.0
 70
    24
 71
     3
 72
     8
 73
     4
 74
     0
 42
0.0000000001
 43
0.0000000001
 40
0.0
 40
0.0
 40
0.0
 40
0.0
 40
1.0
 40
1.0
 40
1.0
 40
1.0
 10
199.7744
 20
-47.22529999999999
 30
0.0
 10
199.7744
 20
-47.22529999999999
 30
0.0
 10
199.8186
 20
-47.1747
 30
0.0
 10
199.8186
 20
-47.1747
 30
0.0
  0
SPLINE
  5
218
330
1F
100
AcDbEntity
  8
DEFPOINTS
370
    25
100
AcDbSpline
210
0.0
220
0.0
230
1.0
 70
    24
 71
     3
 72
     8
 73
     4
 74
     0
 42
0.0000000001
 43
0.0000000001
 40
0.0
 40
0.0
 40
0.0
 40
0.0
 40
1.0
 40
1.0
 40
1.0
 40
1.0
 10
199.8376
 20
-47.143
 30
0.0
 10
199.8376
 20
-47.143
 30
0.0
 10
199.8756
 20
-47.0924
 30
0.0
 10
199.8756
 20
-47.0924
 30
0.0
  0
SPLINE
  5
219
330
1F
100
AcDbEntity
  8
DEFPOINTS
370
    25
100
AcDbSpline
210
0.0
220
0.0
230
1.0
 70
    24
 71
     3
 72
     8
 73
     4
 74
     0
 42
0.0000000001
 43
0.0000000001
 40
0.0
 40
0.0
 40
0.0
 40
0.0
 40
1.0
 40
1.0
 40
1.0
 40
1.0
 10
199.8946
 20
-47.0671
 30
0.0
 10
199.8946
 20
-47.0671
 30
0.0
 10
199.9389
 20
-47.0101
 30
0.0
 10
199.9389
 20
-47.0101
 30
0.0
  0
SPLINE
  5
21A
330
1F
100
AcDbEntity
  8
DEFPOINTS
370
    25
100
AcDbSpline
210
0.0
220
0.0
230
1.0
 70
    24
 71
     3
 72
     8
 73
     4
 74
     0
 42
0.0000000001
 43
0.0000000001
 40
0.0
 40
0.0
 40
0.0
 40
0.0
 40
1.0
 40
1.0
 40
1.0
 40
1.0
 10
199.9579
 20
-46.98479999999999
 30
0.0
 10
199.9579
 20
-46.98479999999999
 30
0.0
 10
200.0022
 20
-46.92779999999999
 30
0.0
 10
200.0022
 20
-46.92779999999999
 30
0.0
  0
SPLINE
  5
21B
330
1F
100
AcDbEntity
  8
DEFPOINTS
370
    25
100
AcDbSpline
210
0.0
220
0.0
230
1.0
 70
    24
 71
     3
 72
     8
 73
     4
 74
     0
 42
0.0000000001
 43
0.0000000001
 40
0.0
 40
0.0
 40
0.0
 40
0.0
 40
1.0
 40
1.0
 40
1.0
 40
1.0
 10
199.9959
 20
-46.93419999999999
 30
0.0
 10
199.9959
 20
-46.93419999999999
 30
0.0
 10
201.2427
 20
-46.93419999999999
 30
0.0
 10
201.2427
 20
-46.93419999999999
 30
0.0
  0
SPLINE
  5
21C
330
1F
100
AcDbEntity
  8
DEFPOINTS
370
    25
100
AcDbSpline
210
0.0
220
0.0
230
1.0
 70
    24
 71
     3
 72
     8
 73
     4
 74
     0
 42
0.0000000001
 43
0.0000000001
 40
0.0
 40
0.0
 40
0.0
 40
0.0
 40
1.0
 40
1.0
 40
1.0
 40
1.0
 10
202.0909
 20
-46.93419999999999
 30
0.0
 10
202.0909
 20
-46.93419999999999
 30
0.0
 10
203.7744
 20
-46.93419999999999
 30
0.0
 10
203.7744
 20
-46.93419999999999
 30
0.0
  0
SPLINE
  5
21D
330
1F
100
AcDbEntity
  8
DEFPOINTS
370
    25
100
AcDbSpline
210
0.0
220
0.0
230
1.0
 70
    24
 71
     3
 72
     8
 73
     4
 74
     0
 42
0.0000000001
 43
0.0000000001
 40
0.0
 40
0.0
 40
0.0
 40
0.0
 40
1.0
 40
1.0
 40
1.0
 40
1.0
 10
204.6162
 20
-46.93419999999999
 30
0.0
 10
204.6162
 20
-46.93419999999999
 30
0.0
 10
206.3062
 20
-46.93419999999999
 30
0.0
 10
206.3062
 20
-46.93419999999999
 30
0.0
  0
SPLINE
  5
21E
330
1F
100
AcDbEntity
  8
DEFPOINTS
370
    25
100
AcDbSpline
210
0.0
220
0.0
230
1.0
 70
    24
 71
     3
 72
     8
 73
     4
 74
     0
 42
0.0000000001
 43
0.0000000001
 40
0.0
 40
0.0
 40
0.0
 40
0.0
 40
1.0
 40
1.0
 40
1.0
 40
1.0
 10
207.1479
 20
-46.93419999999999
 30
0.0
 10
207.1479
 20
-46.93419999999999
 30
0.0
 10
208.8315
 20
-46.93419999999999
 30
0.0
 10
208.8315
 20
-46.93419999999999
 30
0.0
  0
SPLINE
  5
21F
330
1F
100
AcDbEntity
  8
DEFPOINTS
370
    25
100
AcDbSpline
210
0.0
220
0.0
230
1.0
 70
    24
 71
     3
 72
     8
 73
     4
 74
     0
 42
0.0000000001
 43
0.0000000001
 40
0.0
 40
0.0
 40
0.0
 40
0.0
 40
1.0
 40
1.0
 40
1.0
 40
1.0
 10
209.6797
 20
-46.93419999999999
 30
0.0
 10
209.6797
 20
-46.93419999999999
 30
0.0
 10
211.3632
 20
-46.93419999999999
 30
0.0
 10
211.3632
 20
-46.93419999999999
 30
0.0
  0
SPLINE
  5
220
330
1F
100
AcDbEntity
  8
DEFPOINTS
370
    25
100
AcDbSpline
210
0.0
220
0.0
230
1.0
 70
    24
 71
     3
 72
     8
 73
     4
 74
     0
 42
0.0000000001
 43
0.0000000001
 40
0.0
 40
0.0
 40
0.0
 40
0.0
 40
1.0
 40
1.0
 40
1.0
 40
1.0
 10
212.205
 20
-46.93419999999999
 30
0.0
 10
212.205
 20
-46.93419999999999
 30
0.0
 10
213.8949
 20
-46.93419999999999
 30
0.0
 10
213.8949
 20
-46.93419999999999
 30
0.0
  0
SPLINE
  5
221
330
1F
100
AcDbEntity
  8
DEFPOINTS
370
    25
100
AcDbSpline
210
0.0
220
0.0
230
1.0
 70
    24
 71
     3
 72
     8
 73
     4
 74
     0
 42
0.0000000001
 43
0.0000000001
 40
0.0
 40
0.0
 40
0.0
 40
0.0
 40
1.0
 40
1.0
 40
1.0
 40
1.0
 10
214.7367
 20
-46.93419999999999
 30
0.0
 10
214.7367
 20
-46.93419999999999
 30
0.0
 10
216.4267
 20
-46.93419999999999
 30
0.0
 10
216.4267
 20
-46.93419999999999
 30
0.0
  0
SPLINE
  5
222
330
1F
100
AcDbEntity
  8
DEFPOINTS
370
    25
100
AcDbSpline
210
0.0
220
0.0
230
1.0
 70
    24
 71
     3
 72
     8
 73
     4
 74
     0
 42
0.0000000001
 43
0.0000000001
 40
0.0
 40
0.0
 40
0.0
 40
0.0
 40
1.0
 40
1.0
 40
1.0
 40
1.0
 10
217.2684
 20
-46.93419999999999
 30
0.0
 10
217.2684
 20
-46.93419999999999
 30
0.0
 10
218.952
 20
-46.93419999999999
 30
0.0
 10
218.952
 20
-46.93419999999999
 30
0.0
  0
SPLINE
  5
223
330
1F
100
AcDbEntity
  8
DEFPOINTS
370
    25
100
AcDbSpline
210
0.0
220
0.0
230
1.0
 70
    24
 71
     3
 72
     8
 73
     4
 74
     0
 42
0.0000000001
 43
0.0000000001
 40
0.0
 40
0.0
 40
0.0
 40
0.0
 40
1.0
 40
1.0
 40
1.0
 40
1.0
 10
219.8002
 20
-46.93419999999999
 30
0.0
 10
219.8002
 20
-46.93419999999999
 30
0.0
 10
221.4837
 20
-46.93419999999999
 30
0.0
 10
221.4837
 20
-46.93419999999999
 30
0.0
  0
SPLINE
  5
224
330
1F
100
AcDbEntity
  8
DEFPOINTS
370
    25
100
AcDbSpline
210
0.0
220
0.0
230
1.0
 70
    24
 71
     3
 72
     8
 73
     4
 74
     0
 42
0.0000000001
 43
0.0000000001
 40
0.0
 40
0.0
 40
0.0
 40
0.0
 40
1.0
 40
1.0
 40
1.0
 40
1.0
 10
222.3255
 20
-46.93419999999999
 30
0.0
 10
222.3255
 20
-46.93419999999999
 30
0.0
 10
224.0154
 20
-46.93419999999999
 30
0.0
 10
224.0154
 20
-46.93419999999999
 30
0.0
  0
SPLINE
  5
225
330
1F
100
AcDbEntity
  8
DEFPOINTS
370
    25
100
AcDbSpline
210
0.0
220
0.0
230
1.0
 70
    24
 71
     3
 72
     8
 73
     4
 74
     0
 42
0.0000000001
 43
0.0000000001
 40
0.0
 40
0.0
 40
0.0
 40
0.0
 40
1.0
 40
1.0
 40
1.0
 40
1.0
 10
224.8573
 20
-46.93419999999999
 30
0.0
 10
224.8573
 20
-46.93419999999999
 30
0.0
 10
226.5472
 20
-46.93419999999999
 30
0.0
 10
226.5472
 20
-46.93419999999999
 30
0.0
  0
SPLINE
  5
226
330
1F
100
AcDbEntity
  8
DEFPOINTS
370
    25
100
AcDbSpline
210
0.0
220
0.0
230
1.0
 70
    24
 71
     3
 72
     8
 73
     4
 74
     0
 42
0.0000000001
 43
0.0000000001
 40
0.0
 40
0.0
 40
0.0
 40
0.0
 40
1.0
 40
1.0
 40
1.0
 40
1.0
 10
227.3889
 20
-46.93419999999999
 30
0.0
 10
227.3889
 20
-46.93419999999999
 30
0.0
 10
229.0725
 20
-46.93419999999999
 30
0.0
 10
229.0725
 20
-46.93419999999999
 30
0.0
  0
SPLINE
  5
227
330
1F
100
AcDbEntity
  8
DEFPOINTS
370
    25
100
AcDbSpline
210
0.0
220
0.0
230
1.0
 70
    24
 71
     3
 72
     8
 73
     4
 74
     0
 42
0.0000000001
 43
0.0000000001
 40
0.0
 40
0.0
 40
0.0
 40
0.0
 40
1.0
 40
1.0
 40
1.0
 40
1.0
 10
229.9207
 20
-46.93419999999999
 30
0.0
 10
229.9207
 20
-46.93419999999999
 30
0.0
 10
231.6042
 20
-46.93419999999999
 30
0.0
 10
231.6042
 20
-46.93419999999999
 30
0.0
  0
SPLINE
  5
228
330
1F
100
AcDbEntity
  8
DEFPOINTS
370
    25
100
AcDbSpline
210
0.0
220
0.0
230
1.0
 70
    24
 71
     3
 72
     8
 73
     4
 74
     0
 42
0.0000000001
 43
0.0000000001
 40
0.0
 40
0.0
 40
0.0
 40
0.0
 40
1.0
 40
1.0
 40
1.0
 40
1.0
 10
232.446
 20
-46.93419999999999
 30
0.0
 10
232.446
 20
-46.93419999999999
 30
0.0
 10
234.136
 20
-46.93419999999999
 30
0.0
 10
234.136
 20
-46.93419999999999
 30
0.0
  0
SPLINE
  5
229
330
1F
100
AcDbEntity
  8
DEFPOINTS
370
    25
100
AcDbSpline
210
0.0
220
0.0
230
1.0
 70
    24
 71
     3
 72
     8
 73
     4
 74
     0
 42
0.0000000001
 43
0.0000000001
 40
0.0
 40
0.0
 40
0.0
 40
0.0
 40
1.0
 40
1.0
 40
1.0
 40
1.0
 10
234.9778
 20
-46.93419999999999
 30
0.0
 10
234.9778
 20
-46.93419999999999
 30
0.0
 10
236.6677
 20
-46.93419999999999
 30
0.0
 10
236.6677
 20
-46.93419999999999
 30
0.0
  0
SPLINE
  5
22A
330
1F
100
AcDbEntity
  8
DEFPOINTS
370
    25
100
AcDbSpline
210
0.0
220
0.0
230
1.0
 70
    24
 71
     3
 72
     8
 73
     4
 74
     0
 42
0.0000000001
 43
0.0000000001
 40
0.0
 40
0.0
 40
0.0
 40
0.0
 40
1.0
 40
1.0
 40
1.0
 40
1.0
 10
237.5094
 20
-46.93419999999999
 30
0.0
 10
237.5094
 20
-46.93419999999999
 30
0.0
 10
238.7563
 20
-46.93419999999999
 30
0.0
 10
238.7563
 20
-46.93419999999999
 30
0.0
  0
SPLINE
  5
22B
330
1F
100
AcDbEntity
  8
DEFPOINTS
370
    25
100
AcDbSpline
210
0.0
220
0.0
230
1.0
 70
     8
 71
     3
 72
    16
 73
    12
 74
     0
 42
0.0000000001
 43
0.0000000001
 40
0.0
 40
0.0
 40
0.0
 40
0.0
 40
0.3333333333333333
 40
0.3333333333333333
 40
0.3333333333333333
 40
0.3333333333333333
 40
0.6666666666666666
 40
0.6666666666666666
 40
0.6666666666666666
 40
0.6666666666666666
 40
1.0
 40
1.0
 40
1.0
 40
1.0
 10
239.6614
 20
-48.0987
 30
0.0
 10
239.6614
 20
-48.0987
 30
0.0
 10
239.6614
 20
-23.4209
 30
0.0
 10
239.6614
 20
-23.4209
 30
0.0
 10
239.6614
 20
-23.4209
 30
0.0
 10
239.6614
 20
-23.4209
 30
0.0
 10
199.0971
 20
-23.4209
 30
0.0
 10
199.0971
 20
-23.4209
 30
0.0
 10
199.0971
 20
-23.4209
 30
0.0
 10
199.0971
 20
-23.4209
 30
0.0
 10
199.0971
 20
-48.0987
 30
0.0
 10
199.0971
 20
-48.0987
 30
0.0
  0
SPLINE
  5
22C
330
1F
100
AcDbEntity
  8
DEFPOINTS
370
    25
100
AcDbSpline
210
0.0
220
0.0
230
1.0
 70
    24
 71
     3
 72
     8
 73
     4
 74
     0
 42
0.0000000001
 43
0.0000000001
 40
0.0
 40
0.0
 40
0.0
 40
0.0
 40
1.0
 40
1.0
 40
1.0
 40
1.0
 10
221.8382
 20
-33.2376
 30
0.0
 10
221.8382
 20
-33.2376
 30
0.0
 10
236.5601
 20
-44.95309999999999
 30
0.0
 10
236.5601
 20
-44.95309999999999
 30
0.0
  0
SPLINE
  5
22D
330
1F
100
AcDbEntity
  8
DEFPOINTS
370
    25
100
AcDbSpline
210
0.0
220
0.0
230
1.0
 70
    24
 71
     3
 72
     8
 73
     4
 74
     0
 42
0.0000000001
 43
0.0000000001
 40
0.0
 40
0.0
 40
0.0
 40
0.0
 40
1.0
 40
1.0
 40
1.0
 40
1.0
 10
202.2554
 20
-44.8898
 30
0.0
 10
202.2554
 20
-44.8898
 30
0.0
 10
216.9203
 20
-33.2376
 30
0.0
 10
216.9203
 20
-33.2376
 30
0.0
  0
SPLINE
  5
22E
330
1F
100
AcDbEntity
  8
DEFPOINTS
370
    25
100
AcDbSpline
210
0.0
220
0.0
230
1.0
 70
    24
 71
     3
 72
     8
 73
     4
 74
     0
 42
0.0000000001
 43
0.0000000001
 40
0.0
 40
0.0
 40
0.0
 40
0.0
 40
1.0
 40
1.0
 40
1.0
 40
1.0
 10
216.6862
 20
-30.5477
 30
0.0
 10
216.6862
 20
-30.5477
 30
0.0
 10
202.2554
 20
-26.6235
 30
0.0
 10
202.2554
 20
-26.6235
 30
0.0
  0
SPLINE
  5
22F
330
1F
100
AcDbEntity
  8
DEFPOINTS
370
    25
100
AcDbSpline
210
0.0
220
0.0
230
1.0
 70
    24
 71
     3
 72
     8
 73
     4
 74
     0
 42
0.0000000001
 43
0.0000000001
 40
0.0
 40
0.0
 40
0.0
 40
0.0
 40
1.0
 40
1.0
 40
1.0
 40
1.0
 10
222.066
 20
-30.5413
 30
0.0
 10
222.066
 20
-30.5413
 30
0.0
 10
236.5601
 20
-26.5666
 30
0.0
 10
236.5601
 20
-26.5666
 30
0.0
  0
SPLINE
  5
230
330
1F
100
AcDbEntity
  8
DEFPOINTS
370
    25
100
AcDbSpline
210
0.0
220
0.0
230
1.0
 70
    24
 71
     3
 72
     8
 73
     4
 74
     0
 42
0.0000000001
 43
0.0000000001
 40
0.0
 40
0.0
 40
0.0
 40
0.0
 40
1.0
 40
1.0
 40
1.0
 40
1.0
 10
202.2554
 20
-25.8957
 30
0.0
 10
202.2554
 20
-25.8957
 30
0.0
 10
236.5031
 20
-25.8957
 30
0.0
 10
236.5031
 20
-25.8957
 30
0.0
  0
SPLINE
  5
231
330
1F
100
AcDbEntity
  8
DEFPOINTS
370
    25
100
AcDbSpline
210
0.0
220
0.0
230
1.0
 70
    24
 71
     3
 72
     8
 73
     4
 74
     0
 42
0.0000000001
 43
0.0000000001
 40
0.0
 40
0.0
 40
0.0
 40
0.0
 40
1.0
 40
1.0
 40
1.0
 40
1.0
 10
237.231
 20
-26.6235
 30
0.0
 10
237.231
 20
-26.6235
 30
0.0
 10
237.231
 20
-44.8898
 30
0.0
 10
237.231
 20
-44.8898
 30
0.0
  0
SPLINE
  5
232
330
1F
100
AcDbEntity
  8
DEFPOINTS
370
    25
100
AcDbSpline
210
0.0
220
0.0
230
1.0
 70
    24
 71
     3
 72
     8
 73
     4
 74
     0
 42
0.0000000001
 43
0.0000000001
 40
0.0
 40
0.0
 40
0.0
 40
0.0
 40
1.0
 40
1.0
 40
1.0
 40
1.0
 10
201.4643
 20
-44.95309999999999
 30
0.0
 10
201.4643
 20
-44.95309999999999
 30
0.0
 10
201.4643
 20
-26.5666
 30
0.0
 10
201.4643
 20
-26.5666
 30
0.0
  0
SPLINE
  5
233
330
1F
100
AcDbEntity
  8
DEFPOINTS
370
    25
100
AcDbSpline
210
0.0
220
0.0
230
1.0
 70
    24
 71
     3
 72
     8
 73
     4
 74
     0
 42
0.0000000001
 43
0.0000000001
 40
0.0
 40
0.0
 40
0.0
 40
0.0
 40
1.0
 40
1.0
 40
1.0
 40
1.0
 10
202.1985
 20
-25.8387
 30
0.0
 10
202.1985
 20
-25.8387
 30
0.0
 10
236.5601
 20
-25.8387
 30
0.0
 10
236.5601
 20
-25.8387
 30
0.0
  0
SPLINE
  5
234
330
1F
100
AcDbEntity
  8
DEFPOINTS
370
    25
100
AcDbSpline
210
0.0
220
0.0
230
1.0
 70
    24
 71
     3
 72
     8
 73
     4
 74
     0
 42
0.0000000001
 43
0.0000000001
 40
0.0
 40
0.0
 40
0.0
 40
0.0
 40
1.0
 40
1.0
 40
1.0
 40
1.0
 10
237.2879
 20
-26.5666
 30
0.0
 10
237.2879
 20
-26.5666
 30
0.0
 10
237.2879
 20
-44.95309999999999
 30
0.0
 10
237.2879
 20
-44.95309999999999
 30
0.0
  0
SPLINE
  5
235
330
1F
100
AcDbEntity
  8
DEFPOINTS
370
    25
100
AcDbSpline
210
0.0
220
0.0
230
1.0
 70
    24
 71
     3
 72
     8
 73
     4
 74
     0
 42
0.0000000001
 43
0.0000000001
 40
0.0
 40
0.0
 40
0.0
 40
0.0
 40
1.0
 40
1.0
 40
1.0
 40
1.0
 10
201.5022
 20
-49.314
 30
0.0
 10
201.5022
 20
-49.314
 30
0.0
 10
201.5022
 20
-48.0987
 30
0.0
 10
201.5022
 20
-48.0987
 30
0.0
  0
SPLINE
  5
236
330
1F
100
AcDbEntity
  8
DEFPOINTS
370
    25
100
AcDbSpline
210
0.0
220
0.0
230
1.0
 70
    11
 71
     3
 72
    20
 73
    16
 74
     0
 42
0.0000000001
 43
0.0000000001
 40
0.0
 40
0.0
 40
0.0
 40
0.0
 40
0.25
 40
0.25
 40
0.25
 40
0.25
 40
0.5
 40
0.5
 40
0.5
 40
0.5
 40
0.75
 40
0.75
 40
0.75
 40
0.75
 40
1.0
 40
1.0
 40
1.0
 40
1.0
 10
222.2939
 20
-31.6679
 30
0.0
 10
222.2917
 20
-30.0642
 30
0.0
 10
220.9819
 20
-28.7482
 30
0.0
 10
219.3761
 20
-28.7565
 30
0.0
 10
219.3761
 20
-28.7565
 30
0.0
 10
217.7756
 20
-28.7492
 30
0.0
 10
216.4605
 20
-30.0671
 30
0.0
 10
216.4646
 20
-31.6679
 30
0.0
 10
216.4646
 20
-31.6679
 30
0.0
 10
216.4631
 20
-33.279
 30
0.0
 10
217.7675
 20
-34.57930000000001
 30
0.0
 10
219.3761
 20
-34.5857
 30
0.0
 10
219.3761
 20
-34.5857
 30
0.0
 10
220.9908
 20
-34.5795
 30
0.0
 10
222.2882
 20
-33.2832
 30
0.0
 10
222.2939
 20
-31.6679
 30
0.0
  0
SPLINE
  5
237
330
1F
100
AcDbEntity
  8
DEFPOINTS
370
    25
100
AcDbSpline
210
0.0
220
0.0
230
1.0
 70
    11
 71
     3
 72
    20
 73
    16
 74
     0
 42
0.0000000001
 43
0.0000000001
 40
0.0
 40
0.0
 40
0.0
 40
0.0
 40
0.25
 40
0.25
 40
0.25
 40
0.25
 40
0.5
 40
0.5
 40
0.5
 40
0.5
 40
0.75
 40
0.75
 40
0.75
 40
0.75
 40
1.0
 40
1.0
 40
1.0
 40
1.0
 10
221.566
 20
-31.6679
 30
0.0
 10
221.5646
 20
-30.4629
 30
0.0
 10
220.581
 20
-29.4809
 30
0.0
 10
219.3761
 20
-29.4844
 30
0.0
 10
219.3761
 20
-29.4844
 30
0.0
 10
218.1712
 20
-29.4842
 30
0.0
 10
217.1912
 20
-30.4615
 30
0.0
 10
217.1925
 20
-31.6679
 30
0.0
 10
217.1925
 20
-31.6679
 30
0.0
 10
217.1899
 20
-32.8729
 30
0.0
 10
218.1717
 20
-33.8544
 30
0.0
 10
219.3761
 20
-33.8579
 30
0.0
 10
219.3761
 20
-33.8579
 30
0.0
 10
220.5861
 20
-33.853
 30
0.0
 10
221.5612
 20
-32.878
 30
0.0
 10
221.566
 20
-31.6679
 30
0.0
  0
SPLINE
  5
238
330
1F
100
AcDbEntity
  8
DEFPOINTS
370
    25
100
AcDbSpline
210
0.0
220
0.0
230
1.0
 70
    24
 71
     3
 72
     8
 73
     4
 74
     0
 42
0.0000000001
 43
0.0000000001
 40
0.0
 40
0.0
 40
0.0
 40
0.0
 40
1.0
 40
1.0
 40
1.0
 40
1.0
 10
236.5031
 20
-45.62399999999999
 30
0.0
 10
236.5031
 20
-45.62399999999999
 30
0.0
 10
202.2554
 20
-45.62399999999999
 30
0.0
 10
202.2554
 20
-45.62399999999999
 30
0.0
  0
SPLINE
  5
239
330
1F
100
AcDbEntity
  8
DEFPOINTS
370
    25
100
AcDbSpline
210
0.0
220
0.0
230
1.0
 70
    24
 71
     3
 72
     8
 73
     4
 74
     0
 42
0.0000000001
 43
0.0000000001
 40
0.0
 40
0.0
 40
0.0
 40
0.0
 40
1.0
 40
1.0
 40
1.0
 40
1.0
 10
236.5601
 20
-45.681
 30
0.0
 10
236.5601
 20
-45.681
 30
0.0
 10
202.1985
 20
-45.681
 30
0.0
 10
202.1985
 20
-45.681
 30
0.0
  0
SPLINE
  5
23A
330
1F
100
AcDbEntity
  8
DEFPOINTS
370
    25
100
AcDbSpline
210
0.0
220
0.0
230
1.0
 70
     8
 71
     3
 72
     8
 73
     4
 74
     0
 42
0.0000000001
 43
0.0000000001
 40
0.0
 40
0.0
 40
0.0
 40
0.0
 40
1.0
 40
1.0
 40
1.0
 40
1.0
 10
202.2554
 20
-25.8957
 30
0.0
 10
201.8621
 20
-25.8919
 30
0.0
 10
201.5187
 20
-26.2292
 30
0.0
 10
201.5275
 20
-26.6235
 30
0.0
  0
SPLINE
  5
23B
330
1F
100
AcDbEntity
  8
DEFPOINTS
370
    25
100
AcDbSpline
210
0.0
220
0.0
230
1.0
 70
     8
 71
     3
 72
     8
 73
     4
 74
     0
 42
0.0000000001
 43
0.0000000001
 40
0.0
 40
0.0
 40
0.0
 40
0.0
 40
1.0
 40
1.0
 40
1.0
 40
1.0
 10
202.1985
 20
-25.8387
 30
0.0
 10
201.7937
 20
-25.8435
 30
0.0
 10
201.4702
 20
-26.1599
 30
0.0
 10
201.4643
 20
-26.5666
 30
0.0
  0
SPLINE
  5
23C
330
1F
100
AcDbEntity
  8
DEFPOINTS
370
    25
100
AcDbSpline
210
0.0
220
0.0
230
1.0
 70
     8
 71
     3
 72
     8
 73
     4
 74
     0
 42
0.0000000001
 43
0.0000000001
 40
0.0
 40
0.0
 40
0.0
 40
0.0
 40
1.0
 40
1.0
 40
1.0
 40
1.0
 10
201.4643
 20
-44.95309999999999
 30
0.0
 10
201.4702
 20
-45.3596
 30
0.0
 10
201.7937
 20
-45.676
 30
0.0
 10
202.1985
 20
-45.681
 30
0.0
  0
SPLINE
  5
23D
330
1F
100
AcDbEntity
  8
DEFPOINTS
370
    25
100
AcDbSpline
210
0.0
220
0.0
230
1.0
 70
     8
 71
     3
 72
     8
 73
     4
 74
     0
 42
0.0000000001
 43
0.0000000001
 40
0.0
 40
0.0
 40
0.0
 40
0.0
 40
1.0
 40
1.0
 40
1.0
 40
1.0
 10
201.5275
 20
-44.8898
 30
0.0
 10
201.5158
 20
-45.283
 30
0.0
 10
201.8614
 20
-45.62949999999999
 30
0.0
 10
202.2554
 20
-45.62399999999999
 30
0.0
  0
SPLINE
  5
23E
330
1F
100
AcDbEntity
  8
DEFPOINTS
370
    25
100
AcDbSpline
210
0.0
220
0.0
230
1.0
 70
     8
 71
     3
 72
     8
 73
     4
 74
     0
 42
0.0000000001
 43
0.0000000001
 40
0.0
 40
0.0
 40
0.0
 40
0.0
 40
1.0
 40
1.0
 40
1.0
 40
1.0
 10
236.5031
 20
-45.62399999999999
 30
0.0
 10
236.9096
 20
-45.618
 30
0.0
 10
237.226
 20
-45.2946
 30
0.0
 10
237.231
 20
-44.8898
 30
0.0
  0
SPLINE
  5
23F
330
1F
100
AcDbEntity
  8
DEFPOINTS
370
    25
100
AcDbSpline
210
0.0
220
0.0
230
1.0
 70
     8
 71
     3
 72
     8
 73
     4
 74
     0
 42
0.0000000001
 43
0.0000000001
 40
0.0
 40
0.0
 40
0.0
 40
0.0
 40
1.0
 40
1.0
 40
1.0
 40
1.0
 10
236.5601
 20
-45.681
 30
0.0
 10
236.9546
 20
-45.6798
 30
0.0
 10
237.2923
 20
-45.3513
 30
0.0
 10
237.2879
 20
-44.95309999999999
 30
0.0
  0
SPLINE
  5
240
330
1F
100
AcDbEntity
  8
DEFPOINTS
370
    25
100
AcDbSpline
210
0.0
220
0.0
230
1.0
 70
     8
 71
     3
 72
     8
 73
     4
 74
     0
 42
0.0000000001
 43
0.0000000001
 40
0.0
 40
0.0
 40
0.0
 40
0.0
 40
1.0
 40
1.0
 40
1.0
 40
1.0
 10
237.231
 20
-26.6235
 30
0.0
 10
237.2284
 20
-26.2241
 30
0.0
 10
236.9025
 20
-25.8981
 30
0.0
 10
236.5031
 20
-25.8957
 30
0.0
  0
SPLINE
  5
241
330
1F
100
AcDbEntity
  8
DEFPOINTS
370
    25
100
AcDbSpline
210
0.0
220
0.0
230
1.0
 70
     8
 71
     3
 72
     8
 73
     4
 74
     0
 42
0.0000000001
 43
0.0000000001
 40
0.0
 40
0.0
 40
0.0
 40
0.0
 40
1.0
 40
1.0
 40
1.0
 40
1.0
 10
237.2879
 20
-26.5666
 30
0.0
 10
237.2923
 20
-26.1683
 30
0.0
 10
236.9546
 20
-25.8397
 30
0.0
 10
236.5601
 20
-25.8387
 30
0.0
  0
SPLINE
  5
242
330
1F
100
AcDbEntity
  8
DEFPOINTS
370
    25
100
AcDbSpline
210
0.0
220
0.0
230
1.0
 70
    24
 71
     3
 72
     8
 73
     4
 74
     0
 42
0.0000000001
 43
0.0000000001
 40
0.0
 40
0.0
 40
0.0
 40
0.0
 40
1.0
 40
1.0
 40
1.0
 40
1.0
 10
201.5022
 20
-52.2507
 30
0.0
 10
201.5022
 20
-52.2507
 30
0.0
 10
201.5022
 20
-52.2824
 30
0.0
 10
201.5022
 20
-52.2824
 30
0.0
  0
SPLINE
  5
243
330
1F
100
AcDbEntity
  8
DEFPOINTS
370
    25
100
AcDbSpline
210
0.0
220
0.0
230
1.0
 70
    24
 71
     3
 72
     8
 73
     4
 74
     0
 42
0.0000000001
 43
0.0000000001
 40
0.0
 40
0.0
 40
0.0
 40
0.0
 40
1.0
 40
1.0
 40
1.0
 40
1.0
 10
237.2563
 20
-52.2507
 30
0.0
 10
237.2563
 20
-52.2507
 30
0.0
 10
237.2563
 20
-52.2824
 30
0.0
 10
237.2563
 20
-52.2824
 30
0.0
  0
SPLINE
  5
244
330
1F
100
AcDbEntity
  8
DEFPOINTS
370
    25
100
AcDbSpline
210
0.0
220
0.0
230
1.0
 70
    24
 71
     3
 72
     8
 73
     4
 74
     0
 42
0.0000000001
 43
0.0000000001
 40
0.0
 40
0.0
 40
0.0
 40
0.0
 40
1.0
 40
1.0
 40
1.0
 40
1.0
 10
202.8504
 20
-53.0925
 30
0.0
 10
202.8504
 20
-53.0925
 30
0.0
 10
235.9018
 20
-53.0925
 30
0.0
 10
235.9018
 20
-53.0925
 30
0.0
  0
SPLINE
  5
245
330
1F
100
AcDbEntity
  8
DEFPOINTS
100
AcDbSpline
210
0.0
220
0.0
230
1.0
 70
    11
 71
     3
 72
    16
 73
    12
 74
     0
 42
0.0000000001
 43
0.0000000001
 40
0.0
 40
0.0
 40
0.0
 40
0.0
 40
0.3333333333333333
 40
0.3333333333333333
 40
0.3333333333333333
 40
0.3333333333333333
 40
0.6666666666666666
 40
0.6666666666666666
 40
0.6666666666666666
 40
0.6666666666666666
 40
1.0
 40
1.0
 40
1.0
 40
1.0
 10
202.8504
 20
-52.8647
 30
0.0
 10
202.8504
 20
-52.8647
 30
0.0
 10
202.8504
 20
-53.3141
 30
0.0
 10
202.8504
 20
-53.3141
 30
0.0
 10
202.8504
 20
-53.3141
 30
0.0
 10
202.8504
 20
-53.3141
 30
0.0
 10
201.5022
 20
-53.0925
 30
0.0
 10
201.5022
 20
-53.0925
 30
0.0
 10
201.5022
 20
-53.0925
 30
0.0
 10
201.5022
 20
-53.0925
 30
0.0
 10
202.8504
 20
-52.8647
 30
0.0
 10
202.8504
 20
-52.8647
 30
0.0
  0
SPLINE
  5
246
330
1F
100
AcDbEntity
  8
DEFPOINTS
100
AcDbSpline
210
0.0
220
0.0
230
1.0
 70
    11
 71
     3
 72
    16
 73
    12
 74
     0
 42
0.0000000001
 43
0.0000000001
 40
0.0
 40
0.0
 40
0.0
 40
0.0
 40
0.3333333333333333
 40
0.3333333333333333
 40
0.3333333333333333
 40
0.3333333333333333
 40
0.6666666666666666
 40
0.6666666666666666
 40
0.6666666666666666
 40
0.6666666666666666
 40
1.0
 40
1.0
 40
1.0
 40
1.0
 10
235.9018
 20
-52.8647
 30
0.0
 10
235.9018
 20
-52.8647
 30
0.0
 10
235.9018
 20
-53.3141
 30
0.0
 10
235.9018
 20
-53.3141
 30
0.0
 10
235.9018
 20
-53.3141
 30
0.0
 10
235.9018
 20
-53.3141
 30
0.0
 10
237.2563
 20
-53.0925
 30
0.0
 10
237.2563
 20
-53.0925
 30
0.0
 10
237.2563
 20
-53.0925
 30
0.0
 10
237.2563
 20
-53.0925
 30
0.0
 10
235.9018
 20
-52.8647
 30
0.0
 10
235.9018
 20
-52.8647
 30
0.0
  0
SPLINE
  5
247
330
1F
100
AcDbEntity
  8
DEFPOINTS
370
    25
100
AcDbSpline
210
0.0
220
0.0
230
1.0
 70
     8
 71
     3
 72
    40
 73
    36
 74
     0
 42
0.0000000001
 43
0.0000000001
 40
0.0
 40
0.0
 40
0.0
 40
0.0
 40
0.1111111111111111
 40
0.1111111111111111
 40
0.1111111111111111
 40
0.1111111111111111
 40
0.2222222222222222
 40
0.2222222222222222
 40
0.2222222222222222
 40
0.2222222222222222
 40
0.3333333333333333
 40
0.3333333333333333
 40
0.3333333333333333
 40
0.3333333333333333
 40
0.4444444444444445
 40
0.4444444444444445
 40
0.4444444444444445
 40
0.4444444444444445
 40
0.5555555555555556
 40
0.5555555555555556
 40
0.5555555555555556
 40
0.5555555555555556
 40
0.6666666666666668
 40
0.6666666666666668
 40
0.6666666666666668
 40
0.6666666666666668
 40
0.7777777777777779
 40
0.7777777777777779
 40
0.7777777777777779
 40
0.7777777777777779
 40
0.8888888888888891
 40
0.8888888888888891
 40
0.8888888888888891
 40
0.8888888888888891
 40
1.0
 40
1.0
 40
1.0
 40
1.0
 10
217.8001
 20
-51.1558
 30
0.0
 10
217.8001
 20
-51.1558
 30
0.0
 10
218.0279
 20
-50.9342
 30
0.0
 10
218.0279
 20
-50.9342
 30
0.0
 10
218.0279
 20
-50.9342
 30
0.0
 10
218.0279
 20
-50.9342
 30
0.0
 10
218.4773
 20
-50.9342
 30
0.0
 10
218.4773
 20
-50.9342
 30
0.0
 10
218.4773
 20
-50.9342
 30
0.0
 10
218.4773
 20
-50.9342
 30
0.0
 10
218.7052
 20
-51.1558
 30
0.0
 10
218.7052
 20
-51.1558
 30
0.0
 10
218.7052
 20
-51.1558
 30
0.0
 10
218.7052
 20
-51.1558
 30
0.0
 10
218.7052
 20
-51.3836
 30
0.0
 10
218.7052
 20
-51.3836
 30
0.0
 10
218.7052
 20
-51.3836
 30
0.0
 10
218.7052
 20
-51.3836
 30
0.0
 10
218.4773
 20
-51.6052
 30
0.0
 10
218.4773
 20
-51.6052
 30
0.0
 10
218.4773
 20
-51.6052
 30
0.0
 10
218.4773
 20
-51.6052
 30
0.0
 10
218.0279
 20
-51.6052
 30
0.0
 10
218.0279
 20
-51.6052
 30
0.0
 10
218.0279
 20
-51.6052
 30
0.0
 10
218.0279
 20
-51.6052
 30
0.0
 10
217.8001
 20
-51.833
 30
0.0
 10
217.8001
 20
-51.833
 30
0.0
 10
217.8001
 20
-51.833
 30
0.0
 10
217.8001
 20
-51.833
 30
0.0
 10
217.8001
 20
-52.2824
 30
0.0
 10
217.8001
 20
-52.2824
 30
0.0
 10
217.8001
 20
-52.2824
 30
0.0
 10
217.8001
 20
-52.2824
 30
0.0
 10
218.7052
 20
-52.2824
 30
0.0
 10
218.7052
 20
-52.2824
 30
0.0
  0
SPLINE
  5
248
330
1F
100
AcDbEntity
  8
DEFPOINTS
370
    25
100
AcDbSpline
210
0.0
220
0.0
230
1.0
 70
     8
 71
     3
 72
    40
 73
    36
 74
     0
 42
0.0000000001
 43
0.0000000001
 40
0.0
 40
0.0
 40
0.0
 40
0.0
 40
0.1111111111111111
 40
0.1111111111111111
 40
0.1111111111111111
 40
0.1111111111111111
 40
0.2222222222222222
 40
0.2222222222222222
 40
0.2222222222222222
 40
0.2222222222222222
 40
0.3333333333333333
 40
0.3333333333333333
 40
0.3333333333333333
 40
0.3333333333333333
 40
0.4444444444444445
 40
0.4444444444444445
 40
0.4444444444444445
 40
0.4444444444444445
 40
0.5555555555555556
 40
0.5555555555555556
 40
0.5555555555555556
 40
0.5555555555555556
 40
0.6666666666666668
 40
0.6666666666666668
 40
0.6666666666666668
 40
0.6666666666666668
 40
0.7777777777777779
 40
0.7777777777777779
 40
0.7777777777777779
 40
0.7777777777777779
 40
0.8888888888888891
 40
0.8888888888888891
 40
0.8888888888888891
 40
0.8888888888888891
 40
1.0
 40
1.0
 40
1.0
 40
1.0
 10
219.3761
 20
-52.2824
 30
0.0
 10
219.3761
 20
-52.2824
 30
0.0
 10
219.6039
 20
-52.2824
 30
0.0
 10
219.6039
 20
-52.2824
 30
0.0
 10
219.6039
 20
-52.2824
 30
0.0
 10
219.6039
 20
-52.2824
 30
0.0
 10
220.0533
 20
-51.833
 30
0.0
 10
220.0533
 20
-51.833
 30
0.0
 10
220.0533
 20
-51.833
 30
0.0
 10
220.0533
 20
-51.833
 30
0.0
 10
220.0533
 20
-51.1558
 30
0.0
 10
220.0533
 20
-51.1558
 30
0.0
 10
220.0533
 20
-51.1558
 30
0.0
 10
220.0533
 20
-51.1558
 30
0.0
 10
219.8255
 20
-50.9342
 30
0.0
 10
219.8255
 20
-50.9342
 30
0.0
 10
219.8255
 20
-50.9342
 30
0.0
 10
219.8255
 20
-50.9342
 30
0.0
 10
219.3761
 20
-50.9342
 30
0.0
 10
219.3761
 20
-50.9342
 30
0.0
 10
219.3761
 20
-50.9342
 30
0.0
 10
219.3761
 20
-50.9342
 30
0.0
 10
219.1546
 20
-51.1558
 30
0.0
 10
219.1546
 20
-51.1558
 30
0.0
 10
219.1546
 20
-51.1558
 30
0.0
 10
219.1546
 20
-51.1558
 30
0.0
 10
219.1546
 20
-51.3836
 30
0.0
 10
219.1546
 20
-51.3836
 30
0.0
 10
219.1546
 20
-51.3836
 30
0.0
 10
219.1546
 20
-51.3836
 30
0.0
 10
219.3761
 20
-51.6052
 30
0.0
 10
219.3761
 20
-51.6052
 30
0.0
 10
219.3761
 20
-51.6052
 30
0.0
 10
219.3761
 20
-51.6052
 30
0.0
 10
220.0533
 20
-51.6052
 30
0.0
 10
220.0533
 20
-51.6052
 30
0.0
  0
SPLINE
  5
249
330
1F
100
AcDbEntity
  8
DEFPOINTS
370
    25
100
AcDbSpline
210
0.0
220
0.0
230
1.0
 70
    24
 71
     3
 72
     8
 73
     4
 74
     0
 42
0.0000000001
 43
0.0000000001
 40
0.0
 40
0.0
 40
0.0
 40
0.0
 40
1.0
 40
1.0
 40
1.0
 40
1.0
 10
220.5027
 20
-51.3836
 30
0.0
 10
220.5027
 20
-51.3836
 30
0.0
 10
220.7242
 20
-50.9342
 30
0.0
 10
220.7242
 20
-50.9342
 30
0.0
  0
SPLINE
  5
24A
330
1F
100
AcDbEntity
  8
DEFPOINTS
370
    25
100
AcDbSpline
210
0.0
220
0.0
230
1.0
 70
    24
 71
     3
 72
     8
 73
     4
 74
     0
 42
0.0000000001
 43
0.0000000001
 40
0.0
 40
0.0
 40
0.0
 40
0.0
 40
1.0
 40
1.0
 40
1.0
 40
1.0
 10
220.9521
 20
-50.9342
 30
0.0
 10
220.9521
 20
-50.9342
 30
0.0
 10
220.7242
 20
-51.3836
 30
0.0
 10
220.7242
 20
-51.3836
 30
0.0
  0
SPLINE
  5
24B
330
1F
100
AcDbEntity
  8
DEFPOINTS
370
    25
100
AcDbSpline
210
0.0
220
0.0
230
1.0
 70
    24
 71
     3
 72
     8
 73
     4
 74
     0
 42
0.0000000001
 43
0.0000000001
 40
0.0
 40
0.0
 40
0.0
 40
0.0
 40
1.0
 40
1.0
 40
1.0
 40
1.0
 10
239.6361
 20
-56.0293
 30
0.0
 10
239.6361
 20
-56.0293
 30
0.0
 10
239.6361
 20
-56.0609
 30
0.0
 10
239.6361
 20
-56.0609
 30
0.0
  0
SPLINE
  5
24C
330
1F
100
AcDbEntity
  8
DEFPOINTS
370
    25
100
AcDbSpline
210
0.0
220
0.0
230
1.0
 70
    24
 71
     3
 72
     8
 73
     4
 74
     0
 42
0.0000000001
 43
0.0000000001
 40
0.0
 40
0.0
 40
0.0
 40
0.0
 40
1.0
 40
1.0
 40
1.0
 40
1.0
 10
201.5022
 20
-56.0293
 30
0.0
 10
201.5022
 20
-56.0293
 30
0.0
 10
201.5022
 20
-56.0609
 30
0.0
 10
201.5022
 20
-56.0609
 30
0.0
  0
SPLINE
  5
24D
330
1F
100
AcDbEntity
  8
DEFPOINTS
370
    25
100
AcDbSpline
210
0.0
220
0.0
230
1.0
 70
    24
 71
     3
 72
     8
 73
     4
 74
     0
 42
0.0000000001
 43
0.0000000001
 40
0.0
 40
0.0
 40
0.0
 40
0.0
 40
1.0
 40
1.0
 40
1.0
 40
1.0
 10
238.2879
 20
-56.8711
 30
0.0
 10
238.2879
 20
-56.8711
 30
0.0
 10
202.8504
 20
-56.8711
 30
0.0
 10
202.8504
 20
-56.8711
 30
0.0
  0
SPLINE
  5
24E
330
1F
100
AcDbEntity
  8
DEFPOINTS
100
AcDbSpline
210
0.0
220
0.0
230
1.0
 70
    11
 71
     3
 72
    16
 73
    12
 74
     0
 42
0.0000000001
 43
0.0000000001
 40
0.0
 40
0.0
 40
0.0
 40
0.0
 40
0.3333333333333333
 40
0.3333333333333333
 40
0.3333333333333333
 40
0.3333333333333333
 40
0.6666666666666666
 40
0.6666666666666666
 40
0.6666666666666666
 40
0.6666666666666666
 40
1.0
 40
1.0
 40
1.0
 40
1.0
 10
238.2879
 20
-56.6433
 30
0.0
 10
238.2879
 20
-56.6433
 30
0.0
 10
238.2879
 20
-57.0926
 30
0.0
 10
238.2879
 20
-57.0926
 30
0.0
 10
238.2879
 20
-57.0926
 30
0.0
 10
238.2879
 20
-57.0926
 30
0.0
 10
239.6361
 20
-56.8711
 30
0.0
 10
239.6361
 20
-56.8711
 30
0.0
 10
239.6361
 20
-56.8711
 30
0.0
 10
239.6361
 20
-56.8711
 30
0.0
 10
238.2879
 20
-56.6433
 30
0.0
 10
238.2879
 20
-56.6433
 30
0.0
  0
SPLINE
  5
24F
330
1F
100
AcDbEntity
  8
DEFPOINTS
100
AcDbSpline
210
0.0
220
0.0
230
1.0
 70
    11
 71
     3
 72
    16
 73
    12
 74
     0
 42
0.0000000001
 43
0.0000000001
 40
0.0
 40
0.0
 40
0.0
 40
0.0
 40
0.3333333333333333
 40
0.3333333333333333
 40
0.3333333333333333
 40
0.3333333333333333
 40
0.6666666666666666
 40
0.6666666666666666
 40
0.6666666666666666
 40
0.6666666666666666
 40
1.0
 40
1.0
 40
1.0
 40
1.0
 10
202.8504
 20
-56.6433
 30
0.0
 10
202.8504
 20
-56.6433
 30
0.0
 10
202.8504
 20
-57.0926
 30
0.0
 10
202.8504
 20
-57.0926
 30
0.0
 10
202.8504
 20
-57.0926
 30
0.0
 10
202.8504
 20
-57.0926
 30
0.0
 10
201.5022
 20
-56.8711
 30
0.0
 10
201.5022
 20
-56.8711
 30
0.0
 10
201.5022
 20
-56.8711
 30
0.0
 10
201.5022
 20
-56.8711
 30
0.0
 10
202.8504
 20
-56.6433
 30
0.0
 10
202.8504
 20
-56.6433
 30
0.0
  0
SPLINE
  5
250
330
1F
100
AcDbEntity
  8
DEFPOINTS
370
    25
100
AcDbSpline
210
0.0
220
0.0
230
1.0
 70
     8
 71
     3
 72
    28
 73
    24
 74
     0
 42
0.0000000001
 43
0.0000000001
 40
0.0
 40
0.0
 40
0.0
 40
0.0
 40
0.1666666666666667
 40
0.1666666666666667
 40
0.1666666666666667
 40
0.1666666666666667
 40
0.3333333333333333
 40
0.3333333333333333
 40
0.3333333333333333
 40
0.3333333333333333
 40
0.5
 40
0.5
 40
0.5
 40
0.5
 40
0.6666666666666666
 40
0.6666666666666666
 40
0.6666666666666666
 40
0.6666666666666666
 40
0.8333333333333332
 40
0.8333333333333332
 40
0.8333333333333332
 40
0.8333333333333332
 40
1.0
 40
1.0
 40
1.0
 40
1.0
 10
217.3317
 20
-54.5103
 30
0.0
 10
217.3317
 20
-54.5103
 30
0.0
 10
217.5533
 20
-54.2824
 30
0.0
 10
217.5533
 20
-54.2824
 30
0.0
 10
217.5533
 20
-54.2824
 30
0.0
 10
217.5533
 20
-54.2824
 30
0.0
 10
218.0027
 20
-54.2824
 30
0.0
 10
218.0027
 20
-54.2824
 30
0.0
 10
218.0027
 20
-54.2824
 30
0.0
 10
218.0027
 20
-54.2824
 30
0.0
 10
218.2305
 20
-54.5103
 30
0.0
 10
218.2305
 20
-54.5103
 30
0.0
 10
218.2305
 20
-54.5103
 30
0.0
 10
218.2305
 20
-54.5103
 30
0.0
 10
218.2305
 20
-54.7318
 30
0.0
 10
218.2305
 20
-54.7318
 30
0.0
 10
218.2305
 20
-54.7318
 30
0.0
 10
218.2305
 20
-54.7318
 30
0.0
 10
218.0027
 20
-54.95969999999999
 30
0.0
 10
218.0027
 20
-54.95969999999999
 30
0.0
 10
218.0027
 20
-54.95969999999999
 30
0.0
 10
218.0027
 20
-54.95969999999999
 30
0.0
 10
217.7811
 20
-54.95969999999999
 30
0.0
 10
217.7811
 20
-54.95969999999999
 30
0.0
  0
SPLINE
  5
251
330
1F
100
AcDbEntity
  8
DEFPOINTS
370
    25
100
AcDbSpline
210
0.0
220
0.0
230
1.0
 70
     8
 71
     3
 72
    24
 73
    20
 74
     0
 42
0.0000000001
 43
0.0000000001
 40
0.0
 40
0.0
 40
0.0
 40
0.0
 40
0.2
 40
0.2
 40
0.2
 40
0.2
 40
0.4
 40
0.4
 40
0.4
 40
0.4
 40
0.6000000000000001
 40
0.6000000000000001
 40
0.6000000000000001
 40
0.6000000000000001
 40
0.8
 40
0.8
 40
0.8
 40
0.8
 40
1.0
 40
1.0
 40
1.0
 40
1.0
 10
218.0027
 20
-54.95969999999999
 30
0.0
 10
218.0027
 20
-54.95969999999999
 30
0.0
 10
218.2305
 20
-55.18119999999999
 30
0.0
 10
218.2305
 20
-55.18119999999999
 30
0.0
 10
218.2305
 20
-55.18119999999999
 30
0.0
 10
218.2305
 20
-55.18119999999999
 30
0.0
 10
218.2305
 20
-55.4091
 30
0.0
 10
218.2305
 20
-55.4091
 30
0.0
 10
218.2305
 20
-55.4091
 30
0.0
 10
218.2305
 20
-55.4091
 30
0.0
 10
218.0027
 20
-55.6306
 30
0.0
 10
218.0027
 20
-55.6306
 30
0.0
 10
218.0027
 20
-55.6306
 30
0.0
 10
218.0027
 20
-55.6306
 30
0.0
 10
217.5533
 20
-55.6306
 30
0.0
 10
217.5533
 20
-55.6306
 30
0.0
 10
217.5533
 20
-55.6306
 30
0.0
 10
217.5533
 20
-55.6306
 30
0.0
 10
217.3317
 20
-55.4091
 30
0.0
 10
217.3317
 20
-55.4091
 30
0.0
  0
SPLINE
  5
252
330
1F
100
AcDbEntity
  8
DEFPOINTS
370
    25
100
AcDbSpline
210
0.0
220
0.0
230
1.0
 70
     8
 71
     3
 72
    40
 73
    36
 74
     0
 42
0.0000000001
 43
0.0000000001
 40
0.0
 40
0.0
 40
0.0
 40
0.0
 40
0.1111111111111111
 40
0.1111111111111111
 40
0.1111111111111111
 40
0.1111111111111111
 40
0.2222222222222222
 40
0.2222222222222222
 40
0.2222222222222222
 40
0.2222222222222222
 40
0.3333333333333333
 40
0.3333333333333333
 40
0.3333333333333333
 40
0.3333333333333333
 40
0.4444444444444445
 40
0.4444444444444445
 40
0.4444444444444445
 40
0.4444444444444445
 40
0.5555555555555556
 40
0.5555555555555556
 40
0.5555555555555556
 40
0.5555555555555556
 40
0.6666666666666668
 40
0.6666666666666668
 40
0.6666666666666668
 40
0.6666666666666668
 40
0.7777777777777779
 40
0.7777777777777779
 40
0.7777777777777779
 40
0.7777777777777779
 40
0.8888888888888891
 40
0.8888888888888891
 40
0.8888888888888891
 40
0.8888888888888891
 40
1.0
 40
1.0
 40
1.0
 40
1.0
 10
218.6799
 20
-54.5103
 30
0.0
 10
218.6799
 20
-54.5103
 30
0.0
 10
218.9077
 20
-54.2824
 30
0.0
 10
218.9077
 20
-54.2824
 30
0.0
 10
218.9077
 20
-54.2824
 30
0.0
 10
218.9077
 20
-54.2824
 30
0.0
 10
219.3571
 20
-54.2824
 30
0.0
 10
219.3571
 20
-54.2824
 30
0.0
 10
219.3571
 20
-54.2824
 30
0.0
 10
219.3571
 20
-54.2824
 30
0.0
 10
219.5786
 20
-54.5103
 30
0.0
 10
219.5786
 20
-54.5103
 30
0.0
 10
219.5786
 20
-54.5103
 30
0.0
 10
219.5786
 20
-54.5103
 30
0.0
 10
219.5786
 20
-54.7318
 30
0.0
 10
219.5786
 20
-54.7318
 30
0.0
 10
219.5786
 20
-54.7318
 30
0.0
 10
219.5786
 20
-54.7318
 30
0.0
 10
219.3571
 20
-54.95969999999999
 30
0.0
 10
219.3571
 20
-54.95969999999999
 30
0.0
 10
219.3571
 20
-54.95969999999999
 30
0.0
 10
219.3571
 20
-54.95969999999999
 30
0.0
 10
218.9077
 20
-54.95969999999999
 30
0.0
 10
218.9077
 20
-54.95969999999999
 30
0.0
 10
218.9077
 20
-54.95969999999999
 30
0.0
 10
218.9077
 20
-54.95969999999999
 30
0.0
 10
218.6799
 20
-55.18119999999999
 30
0.0
 10
218.6799
 20
-55.18119999999999
 30
0.0
 10
218.6799
 20
-55.18119999999999
 30
0.0
 10
218.6799
 20
-55.18119999999999
 30
0.0
 10
218.6799
 20
-55.6306
 30
0.0
 10
218.6799
 20
-55.6306
 30
0.0
 10
218.6799
 20
-55.6306
 30
0.0
 10
218.6799
 20
-55.6306
 30
0.0
 10
219.5786
 20
-55.6306
 30
0.0
 10
219.5786
 20
-55.6306
 30
0.0
  0
SPLINE
  5
253
330
1F
100
AcDbEntity
  8
DEFPOINTS
370
    25
100
AcDbSpline
210
0.0
220
0.0
230
1.0
 70
     8
 71
     3
 72
    12
 73
     8
 74
     0
 42
0.0000000001
 43
0.0000000001
 40
0.0
 40
0.0
 40
0.0
 40
0.0
 40
0.5
 40
0.5
 40
0.5
 40
0.5
 40
1.0
 40
1.0
 40
1.0
 40
1.0
 10
220.028
 20
-53.8584
 30
0.0
 10
220.028
 20
-53.8584
 30
0.0
 10
220.6609
 20
-53.8584
 30
0.0
 10
220.6609
 20
-53.8584
 30
0.0
 10
220.6609
 20
-53.8584
 30
0.0
 10
220.6609
 20
-53.8584
 30
0.0
 10
220.1863
 20
-54.8014
 30
0.0
 10
220.1863
 20
-54.8014
 30
0.0
  0
SPLINE
  5
254
330
1F
100
AcDbEntity
  8
DEFPOINTS
370
    25
100
AcDbSpline
210
0.0
220
0.0
230
1.0
 70
    24
 71
     3
 72
     8
 73
     4
 74
     0
 42
0.0000000001
 43
0.0000000001
 40
0.0
 40
0.0
 40
0.0
 40
0.0
 40
1.0
 40
1.0
 40
1.0
 40
1.0
 10
220.028
 20
-54.95969999999999
 30
0.0
 10
220.028
 20
-54.95969999999999
 30
0.0
 10
220.6609
 20
-54.95969999999999
 30
0.0
 10
220.6609
 20
-54.95969999999999
 30
0.0
  0
SPLINE
  5
255
330
1F
100
AcDbEntity
  8
DEFPOINTS
370
    25
100
AcDbSpline
210
0.0
220
0.0
230
1.0
 70
     8
 71
     3
 72
    48
 73
    44
 74
     0
 42
0.0000000001
 43
0.0000000001
 40
0.0
 40
0.0
 40
0.0
 40
0.0
 40
0.0909090909090909
 40
0.0909090909090909
 40
0.0909090909090909
 40
0.0909090909090909
 40
0.1818181818181818
 40
0.1818181818181818
 40
0.1818181818181818
 40
0.1818181818181818
 40
0.2727272727272727
 40
0.2727272727272727
 40
0.2727272727272727
 40
0.2727272727272727
 40
0.3636363636363636
 40
0.3636363636363636
 40
0.3636363636363636
 40
0.3636363636363636
 40
0.4545454545454546
 40
0.4545454545454546
 40
0.4545454545454546
 40
0.4545454545454546
 40
0.5454545454545455
 40
0.5454545454545455
 40
0.5454545454545455
 40
0.5454545454545455
 40
0.6363636363636365
 40
0.6363636363636365
 40
0.6363636363636365
 40
0.6363636363636365
 40
0.7272727272727275
 40
0.7272727272727275
 40
0.7272727272727275
 40
0.7272727272727275
 40
0.8181818181818183
 40
0.8181818181818183
 40
0.8181818181818183
 40
0.8181818181818183
 40
0.9090909090909091
 40
0.9090909090909091
 40
0.9090909090909091
 40
0.9090909090909091
 40
1.0
 40
1.0
 40
1.0
 40
1.0
 10
220.1863
 20
-56.0609
 30
0.0
 10
220.1863
 20
-56.0609
 30
0.0
 10
220.028
 20
-55.9027
 30
0.0
 10
220.028
 20
-55.9027
 30
0.0
 10
220.028
 20
-55.9027
 30
0.0
 10
220.028
 20
-55.9027
 30
0.0
 10
220.028
 20
-55.7445
 30
0.0
 10
220.028
 20
-55.7445
 30
0.0
 10
220.028
 20
-55.7445
 30
0.0
 10
220.028
 20
-55.7445
 30
0.0
 10
220.1863
 20
-55.5863
 30
0.0
 10
220.1863
 20
-55.5863
 30
0.0
 10
220.1863
 20
-55.5863
 30
0.0
 10
220.1863
 20
-55.5863
 30
0.0
 10
220.5027
 20
-55.5863
 30
0.0
 10
220.5027
 20
-55.5863
 30
0.0
 10
220.5027
 20
-55.5863
 30
0.0
 10
220.5027
 20
-55.5863
 30
0.0
 10
220.6609
 20
-55.428
 30
0.0
 10
220.6609
 20
-55.428
 30
0.0
 10
220.6609
 20
-55.428
 30
0.0
 10
220.6609
 20
-55.428
 30
0.0
 10
220.6609
 20
-55.2698
 30
0.0
 10
220.6609
 20
-55.2698
 30
0.0
 10
220.6609
 20
-55.2698
 30
0.0
 10
220.6609
 20
-55.2698
 30
0.0
 10
220.5027
 20
-55.1179
 30
0.0
 10
220.5027
 20
-55.1179
 30
0.0
 10
220.5027
 20
-55.1179
 30
0.0
 10
220.5027
 20
-55.1179
 30
0.0
 10
220.1863
 20
-55.1179
 30
0.0
 10
220.1863
 20
-55.1179
 30
0.0
 10
220.1863
 20
-55.1179
 30
0.0
 10
220.1863
 20
-55.1179
 30
0.0
 10
220.028
 20
-55.2698
 30
0.0
 10
220.028
 20
-55.2698
 30
0.0
 10
220.028
 20
-55.2698
 30
0.0
 10
220.028
 20
-55.2698
 30
0.0
 10
220.028
 20
-55.428
 30
0.0
 10
220.028
 20
-55.428
 30
0.0
 10
220.028
 20
-55.428
 30
0.0
 10
220.028
 20
-55.428
 30
0.0
 10
220.1863
 20
-55.5863
 30
0.0
 10
220.1863
 20
-55.5863
 30
0.0
  0
SPLINE
  5
256
330
1F
100
AcDbEntity
  8
DEFPOINTS
370
    25
100
AcDbSpline
210
0.0
220
0.0
230
1.0
 70
     8
 71
     3
 72
    20
 73
    16
 74
     0
 42
0.0000000001
 43
0.0000000001
 40
0.0
 40
0.0
 40
0.0
 40
0.0
 40
0.25
 40
0.25
 40
0.25
 40
0.25
 40
0.5
 40
0.5
 40
0.5
 40
0.5
 40
0.75
 40
0.75
 40
0.75
 40
0.75
 40
1.0
 40
1.0
 40
1.0
 40
1.0
 10
220.5027
 20
-55.5863
 30
0.0
 10
220.5027
 20
-55.5863
 30
0.0
 10
220.6609
 20
-55.7445
 30
0.0
 10
220.6609
 20
-55.7445
 30
0.0
 10
220.6609
 20
-55.7445
 30
0.0
 10
220.6609
 20
-55.7445
 30
0.0
 10
220.6609
 20
-55.9027
 30
0.0
 10
220.6609
 20
-55.9027
 30
0.0
 10
220.6609
 20
-55.9027
 30
0.0
 10
220.6609
 20
-55.9027
 30
0.0
 10
220.5027
 20
-56.0609
 30
0.0
 10
220.5027
 20
-56.0609
 30
0.0
 10
220.5027
 20
-56.0609
 30
0.0
 10
220.5027
 20
-56.0609
 30
0.0
 10
220.1863
 20
-56.0609
 30
0.0
 10
220.1863
 20
-56.0609
 30
0.0
  0
SPLINE
  5
257
330
1F
100
AcDbEntity
  8
DEFPOINTS
370
    25
100
AcDbSpline
210
0.0
220
0.0
230
1.0
 70
    24
 71
     3
 72
     8
 73
     4
 74
     0
 42
0.0000000001
 43
0.0000000001
 40
0.0
 40
0.0
 40
0.0
 40
0.0
 40
1.0
 40
1.0
 40
1.0
 40
1.0
 10
220.9711
 20
-54.7318
 30
0.0
 10
220.9711
 20
-54.7318
 30
0.0
 10
221.1989
 20
-54.2824
 30
0.0
 10
221.1989
 20
-54.2824
 30
0.0
  0
SPLINE
  5
258
330
1F
100
AcDbEntity
  8
DEFPOINTS
370
    25
100
AcDbSpline
210
0.0
220
0.0
230
1.0
 70
    24
 71
     3
 72
     8
 73
     4
 74
     0
 42
0.0000000001
 43
0.0000000001
 40
0.0
 40
0.0
 40
0.0
 40
0.0
 40
1.0
 40
1.0
 40
1.0
 40
1.0
 10
221.4268
 20
-54.2824
 30
0.0
 10
221.4268
 20
-54.2824
 30
0.0
 10
221.1989
 20
-54.7318
 30
0.0
 10
221.1989
 20
-54.7318
 30
0.0
  0
SPLINE
  5
259
330
1F
100
AcDbEntity
  8
DEFPOINTS
370
    25
100
AcDbSpline
210
0.0
220
0.0
230
1.0
 70
    24
 71
     3
 72
     8
 73
     4
 74
     0
 42
0.0000000001
 43
0.0000000001
 40
0.0
 40
0.0
 40
0.0
 40
0.0
 40
1.0
 40
1.0
 40
1.0
 40
1.0
 10
242.4336
 20
-25.94
 30
0.0
 10
242.4336
 20
-25.94
 30
0.0
 10
242.3577
 20
-25.94
 30
0.0
 10
242.3577
 20
-25.94
 30
0.0
  0
SPLINE
  5
25A
330
1F
100
AcDbEntity
  8
DEFPOINTS
370
    25
100
AcDbSpline
210
0.0
220
0.0
230
1.0
 70
    24
 71
     3
 72
     8
 73
     4
 74
     0
 42
0.0000000001
 43
0.0000000001
 40
0.0
 40
0.0
 40
0.0
 40
0.0
 40
1.0
 40
1.0
 40
1.0
 40
1.0
 10
242.3577
 20
-45.62399999999999
 30
0.0
 10
242.3577
 20
-45.62399999999999
 30
0.0
 10
242.364
 20
-45.62399999999999
 30
0.0
 10
242.364
 20
-45.62399999999999
 30
0.0
  0
SPLINE
  5
25B
330
1F
100
AcDbEntity
  8
DEFPOINTS
370
    25
100
AcDbSpline
210
0.0
220
0.0
230
1.0
 70
    24
 71
     3
 72
     8
 73
     4
 74
     0
 42
0.0000000001
 43
0.0000000001
 40
0.0
 40
0.0
 40
0.0
 40
0.0
 40
1.0
 40
1.0
 40
1.0
 40
1.0
 10
243.1678
 20
-27.2881
 30
0.0
 10
243.1678
 20
-27.2881
 30
0.0
 10
243.1678
 20
-34.2756
 30
0.0
 10
243.1678
 20
-34.2756
 30
0.0
  0
SPLINE
  5
25C
330
1F
100
AcDbEntity
  8
DEFPOINTS
370
    25
100
AcDbSpline
210
0.0
220
0.0
230
1.0
 70
    24
 71
     3
 72
     8
 73
     4
 74
     0
 42
0.0000000001
 43
0.0000000001
 40
0.0
 40
0.0
 40
0.0
 40
0.0
 40
1.0
 40
1.0
 40
1.0
 40
1.0
 10
243.1678
 20
-44.2695
 30
0.0
 10
243.1678
 20
-44.2695
 30
0.0
 10
243.1678
 20
-37.244
 30
0.0
 10
243.1678
 20
-37.244
 30
0.0
  0
SPLINE
  5
25D
330
1F
100
AcDbEntity
  8
DEFPOINTS
100
AcDbSpline
210
0.0
220
0.0
230
1.0
 70
    11
 71
     3
 72
    16
 73
    12
 74
     0
 42
0.0000000001
 43
0.0000000001
 40
0.0
 40
0.0
 40
0.0
 40
0.0
 40
0.3333333333333333
 40
0.3333333333333333
 40
0.3333333333333333
 40
0.3333333333333333
 40
0.6666666666666666
 40
0.6666666666666666
 40
0.6666666666666666
 40
0.6666666666666666
 40
1.0
 40
1.0
 40
1.0
 40
1.0
 10
242.94
 20
-27.2881
 30
0.0
 10
242.94
 20
-27.2881
 30
0.0
 10
243.3894
 20
-27.2881
 30
0.0
 10
243.3894
 20
-27.2881
 30
0.0
 10
243.3894
 20
-27.2881
 30
0.0
 10
243.3894
 20
-27.2881
 30
0.0
 10
243.1678
 20
-25.94
 30
0.0
 10
243.1678
 20
-25.94
 30
0.0
 10
243.1678
 20
-25.94
 30
0.0
 10
243.1678
 20
-25.94
 30
0.0
 10
242.94
 20
-27.2881
 30
0.0
 10
242.94
 20
-27.2881
 30
0.0
  0
SPLINE
  5
25E
330
1F
100
AcDbEntity
  8
DEFPOINTS
100
AcDbSpline
210
0.0
220
0.0
230
1.0
 70
    11
 71
     3
 72
    16
 73
    12
 74
     0
 42
0.0000000001
 43
0.0000000001
 40
0.0
 40
0.0
 40
0.0
 40
0.0
 40
0.3333333333333333
 40
0.3333333333333333
 40
0.3333333333333333
 40
0.3333333333333333
 40
0.6666666666666666
 40
0.6666666666666666
 40
0.6666666666666666
 40
0.6666666666666666
 40
1.0
 40
1.0
 40
1.0
 40
1.0
 10
242.94
 20
-44.2695
 30
0.0
 10
242.94
 20
-44.2695
 30
0.0
 10
243.3894
 20
-44.2695
 30
0.0
 10
243.3894
 20
-44.2695
 30
0.0
 10
243.3894
 20
-44.2695
 30
0.0
 10
243.3894
 20
-44.2695
 30
0.0
 10
243.1678
 20
-45.62399999999999
 30
0.0
 10
243.1678
 20
-45.62399999999999
 30
0.0
 10
243.1678
 20
-45.62399999999999
 30
0.0
 10
243.1678
 20
-45.62399999999999
 30
0.0
 10
242.94
 20
-44.2695
 30
0.0
 10
242.94
 20
-44.2695
 30
0.0
  0
SPLINE
  5
25F
330
1F
100
AcDbEntity
  8
DEFPOINTS
370
    25
100
AcDbSpline
210
0.0
220
0.0
230
1.0
 70
     8
 71
     3
 72
    12
 73
     8
 74
     0
 42
0.0000000001
 43
0.0000000001
 40
0.0
 40
0.0
 40
0.0
 40
0.0
 40
0.5
 40
0.5
 40
0.5
 40
0.5
 40
1.0
 40
1.0
 40
1.0
 40
1.0
 10
241.8197
 20
-35.3073
 30
0.0
 10
241.8197
 20
-35.3073
 30
0.0
 10
242.0412
 20
-35.0858
 30
0.0
 10
242.0412
 20
-35.0858
 30
0.0
 10
242.0412
 20
-35.0858
 30
0.0
 10
242.0412
 20
-35.0858
 30
0.0
 10
242.0412
 20
-36.4339
 30
0.0
 10
242.0412
 20
-36.4339
 30
0.0
  0
SPLINE
  5
260
330
1F
100
AcDbEntity
  8
DEFPOINTS
370
    25
100
AcDbSpline
210
0.0
220
0.0
230
1.0
 70
    24
 71
     3
 72
     8
 73
     4
 74
     0
 42
0.0000000001
 43
0.0000000001
 40
0.0
 40
0.0
 40
0.0
 40
0.0
 40
1.0
 40
1.0
 40
1.0
 40
1.0
 10
241.8197
 20
-36.4339
 30
0.0
 10
241.8197
 20
-36.4339
 30
0.0
 10
242.2691
 20
-36.4339
 30
0.0
 10
242.2691
 20
-36.4339
 30
0.0
  0
SPLINE
  5
261
330
1F
100
AcDbEntity
  8
DEFPOINTS
370
    25
100
AcDbSpline
210
0.0
220
0.0
230
1.0
 70
     8
 71
     3
 72
    40
 73
    36
 74
     0
 42
0.0000000001
 43
0.0000000001
 40
0.0
 40
0.0
 40
0.0
 40
0.0
 40
0.1111111111111111
 40
0.1111111111111111
 40
0.1111111111111111
 40
0.1111111111111111
 40
0.2222222222222222
 40
0.2222222222222222
 40
0.2222222222222222
 40
0.2222222222222222
 40
0.3333333333333333
 40
0.3333333333333333
 40
0.3333333333333333
 40
0.3333333333333333
 40
0.4444444444444445
 40
0.4444444444444445
 40
0.4444444444444445
 40
0.4444444444444445
 40
0.5555555555555556
 40
0.5555555555555556
 40
0.5555555555555556
 40
0.5555555555555556
 40
0.6666666666666668
 40
0.6666666666666668
 40
0.6666666666666668
 40
0.6666666666666668
 40
0.7777777777777779
 40
0.7777777777777779
 40
0.7777777777777779
 40
0.7777777777777779
 40
0.8888888888888891
 40
0.8888888888888891
 40
0.8888888888888891
 40
0.8888888888888891
 40
1.0
 40
1.0
 40
1.0
 40
1.0
 10
242.7184
 20
-35.75670000000001
 30
0.0
 10
242.7184
 20
-35.75670000000001
 30
0.0
 10
243.3894
 20
-35.75670000000001
 30
0.0
 10
243.3894
 20
-35.75670000000001
 30
0.0
 10
243.3894
 20
-35.75670000000001
 30
0.0
 10
243.3894
 20
-35.75670000000001
 30
0.0
 10
243.6172
 20
-35.9845
 30
0.0
 10
243.6172
 20
-35.9845
 30
0.0
 10
243.6172
 20
-35.9845
 30
0.0
 10
243.6172
 20
-35.9845
 30
0.0
 10
243.6172
 20
-36.206
 30
0.0
 10
243.6172
 20
-36.206
 30
0.0
 10
243.6172
 20
-36.206
 30
0.0
 10
243.6172
 20
-36.206
 30
0.0
 10
243.3894
 20
-36.4339
 30
0.0
 10
243.3894
 20
-36.4339
 30
0.0
 10
243.3894
 20
-36.4339
 30
0.0
 10
243.3894
 20
-36.4339
 30
0.0
 10
242.94
 20
-36.4339
 30
0.0
 10
242.94
 20
-36.4339
 30
0.0
 10
242.94
 20
-36.4339
 30
0.0
 10
242.94
 20
-36.4339
 30
0.0
 10
242.7184
 20
-36.206
 30
0.0
 10
242.7184
 20
-36.206
 30
0.0
 10
242.7184
 20
-36.206
 30
0.0
 10
242.7184
 20
-36.206
 30
0.0
 10
242.7184
 20
-35.5351
 30
0.0
 10
242.7184
 20
-35.5351
 30
0.0
 10
242.7184
 20
-35.5351
 30
0.0
 10
242.7184
 20
-35.5351
 30
0.0
 10
243.1678
 20
-35.0858
 30
0.0
 10
243.1678
 20
-35.0858
 30
0.0
 10
243.1678
 20
-35.0858
 30
0.0
 10
243.1678
 20
-35.0858
 30
0.0
 10
243.3894
 20
-35.0858
 30
0.0
 10
243.3894
 20
-35.0858
 30
0.0
  0
SPLINE
  5
262
330
1F
100
AcDbEntity
  8
DEFPOINTS
370
    25
100
AcDbSpline
210
0.0
220
0.0
230
1.0
 70
    24
 71
     3
 72
     8
 73
     4
 74
     0
 42
0.0000000001
 43
0.0000000001
 40
0.0
 40
0.0
 40
0.0
 40
0.0
 40
1.0
 40
1.0
 40
1.0
 40
1.0
 10
244.0666
 20
-35.5351
 30
0.0
 10
244.0666
 20
-35.5351
 30
0.0
 10
244.2881
 20
-35.0858
 30
0.0
 10
244.2881
 20
-35.0858
 30
0.0
  0
SPLINE
  5
263
330
1F
100
AcDbEntity
  8
DEFPOINTS
370
    25
100
AcDbSpline
210
0.0
220
0.0
230
1.0
 70
    24
 71
     3
 72
     8
 73
     4
 74
     0
 42
0.0000000001
 43
0.0000000001
 40
0.0
 40
0.0
 40
0.0
 40
0.0
 40
1.0
 40
1.0
 40
1.0
 40
1.0
 10
244.5159
 20
-35.0858
 30
0.0
 10
244.5159
 20
-35.0858
 30
0.0
 10
244.2881
 20
-35.5351
 30
0.0
 10
244.2881
 20
-35.5351
 30
0.0
  0
SPLINE
  5
264
330
1F
100
AcDbEntity
  8
DEFPOINTS
370
    25
100
AcDbSpline
210
0.0
220
0.0
230
1.0
 70
    24
 71
     3
 72
     8
 73
     4
 74
     0
 42
0.0000000001
 43
0.0000000001
 40
0.0
 40
0.0
 40
0.0
 40
0.0
 40
1.0
 40
1.0
 40
1.0
 40
1.0
 10
247.1996
 20
-23.4209
 30
0.0
 10
247.1996
 20
-23.4209
 30
0.0
 10
247.4844
 20
-23.4209
 30
0.0
 10
247.4844
 20
-23.4209
 30
0.0
  0
SPLINE
  5
265
330
1F
100
AcDbEntity
  8
DEFPOINTS
370
    25
100
AcDbSpline
210
0.0
220
0.0
230
1.0
 70
    24
 71
     3
 72
     8
 73
     4
 74
     0
 42
0.0000000001
 43
0.0000000001
 40
0.0
 40
0.0
 40
0.0
 40
0.0
 40
1.0
 40
1.0
 40
1.0
 40
1.0
 10
245.8324
 20
-48.0987
 30
0.0
 10
245.8324
 20
-48.0987
 30
0.0
 10
245.8641
 20
-48.0987
 30
0.0
 10
245.8641
 20
-48.0987
 30
0.0
  0
SPLINE
  5
266
330
1F
100
AcDbEntity
  8
DEFPOINTS
370
    25
100
AcDbSpline
210
0.0
220
0.0
230
1.0
 70
    24
 71
     3
 72
     8
 73
     4
 74
     0
 42
0.0000000001
 43
0.0000000001
 40
0.0
 40
0.0
 40
0.0
 40
0.0
 40
1.0
 40
1.0
 40
1.0
 40
1.0
 10
246.6742
 20
-24.769
 30
0.0
 10
246.6742
 20
-24.769
 30
0.0
 10
246.6742
 20
-34.2756
 30
0.0
 10
246.6742
 20
-34.2756
 30
0.0
  0
SPLINE
  5
267
330
1F
100
AcDbEntity
  8
DEFPOINTS
370
    25
100
AcDbSpline
210
0.0
220
0.0
230
1.0
 70
    24
 71
     3
 72
     8
 73
     4
 74
     0
 42
0.0000000001
 43
0.0000000001
 40
0.0
 40
0.0
 40
0.0
 40
0.0
 40
1.0
 40
1.0
 40
1.0
 40
1.0
 10
246.6742
 20
-46.7506
 30
0.0
 10
246.6742
 20
-46.7506
 30
0.0
 10
246.6742
 20
-37.244
 30
0.0
 10
246.6742
 20
-37.244
 30
0.0
  0
SPLINE
  5
268
330
1F
100
AcDbEntity
  8
DEFPOINTS
100
AcDbSpline
210
0.0
220
0.0
230
1.0
 70
    11
 71
     3
 72
    16
 73
    12
 74
     0
 42
0.0000000001
 43
0.0000000001
 40
0.0
 40
0.0
 40
0.0
 40
0.0
 40
0.3333333333333333
 40
0.3333333333333333
 40
0.3333333333333333
 40
0.3333333333333333
 40
0.6666666666666666
 40
0.6666666666666666
 40
0.6666666666666666
 40
0.6666666666666666
 40
1.0
 40
1.0
 40
1.0
 40
1.0
 10
246.4527
 20
-24.769
 30
0.0
 10
246.4527
 20
-24.769
 30
0.0
 10
246.9021
 20
-24.769
 30
0.0
 10
246.9021
 20
-24.769
 30
0.0
 10
246.9021
 20
-24.769
 30
0.0
 10
246.9021
 20
-24.769
 30
0.0
 10
246.6742
 20
-23.4209
 30
0.0
 10
246.6742
 20
-23.4209
 30
0.0
 10
246.6742
 20
-23.4209
 30
0.0
 10
246.6742
 20
-23.4209
 30
0.0
 10
246.4527
 20
-24.769
 30
0.0
 10
246.4527
 20
-24.769
 30
0.0
  0
SPLINE
  5
269
330
1F
100
AcDbEntity
  8
DEFPOINTS
100
AcDbSpline
210
0.0
220
0.0
230
1.0
 70
    11
 71
     3
 72
    16
 73
    12
 74
     0
 42
0.0000000001
 43
0.0000000001
 40
0.0
 40
0.0
 40
0.0
 40
0.0
 40
0.3333333333333333
 40
0.3333333333333333
 40
0.3333333333333333
 40
0.3333333333333333
 40
0.6666666666666666
 40
0.6666666666666666
 40
0.6666666666666666
 40
0.6666666666666666
 40
1.0
 40
1.0
 40
1.0
 40
1.0
 10
246.4527
 20
-46.7506
 30
0.0
 10
246.4527
 20
-46.7506
 30
0.0
 10
246.9021
 20
-46.7506
 30
0.0
 10
246.9021
 20
-46.7506
 30
0.0
 10
246.9021
 20
-46.7506
 30
0.0
 10
246.9021
 20
-46.7506
 30
0.0
 10
246.6742
 20
-48.0987
 30
0.0
 10
246.6742
 20
-48.0987
 30
0.0
 10
246.6742
 20
-48.0987
 30
0.0
 10
246.6742
 20
-48.0987
 30
0.0
 10
246.4527
 20
-46.7506
 30
0.0
 10
246.4527
 20
-46.7506
 30
0.0
  0
SPLINE
  5
26A
330
1F
100
AcDbEntity
  8
DEFPOINTS
370
    25
100
AcDbSpline
210
0.0
220
0.0
230
1.0
 70
     8
 71
     3
 72
    40
 73
    36
 74
     0
 42
0.0000000001
 43
0.0000000001
 40
0.0
 40
0.0
 40
0.0
 40
0.0
 40
0.1111111111111111
 40
0.1111111111111111
 40
0.1111111111111111
 40
0.1111111111111111
 40
0.2222222222222222
 40
0.2222222222222222
 40
0.2222222222222222
 40
0.2222222222222222
 40
0.3333333333333333
 40
0.3333333333333333
 40
0.3333333333333333
 40
0.3333333333333333
 40
0.4444444444444445
 40
0.4444444444444445
 40
0.4444444444444445
 40
0.4444444444444445
 40
0.5555555555555556
 40
0.5555555555555556
 40
0.5555555555555556
 40
0.5555555555555556
 40
0.6666666666666668
 40
0.6666666666666668
 40
0.6666666666666668
 40
0.6666666666666668
 40
0.7777777777777779
 40
0.7777777777777779
 40
0.7777777777777779
 40
0.7777777777777779
 40
0.8888888888888891
 40
0.8888888888888891
 40
0.8888888888888891
 40
0.8888888888888891
 40
1.0
 40
1.0
 40
1.0
 40
1.0
 10
245.2122
 20
-35.3073
 30
0.0
 10
245.2122
 20
-35.3073
 30
0.0
 10
245.44
 20
-35.0858
 30
0.0
 10
245.44
 20
-35.0858
 30
0.0
 10
245.44
 20
-35.0858
 30
0.0
 10
245.44
 20
-35.0858
 30
0.0
 10
245.8894
 20
-35.0858
 30
0.0
 10
245.8894
 20
-35.0858
 30
0.0
 10
245.8894
 20
-35.0858
 30
0.0
 10
245.8894
 20
-35.0858
 30
0.0
 10
246.1109
 20
-35.3073
 30
0.0
 10
246.1109
 20
-35.3073
 30
0.0
 10
246.1109
 20
-35.3073
 30
0.0
 10
246.1109
 20
-35.3073
 30
0.0
 10
246.1109
 20
-35.5351
 30
0.0
 10
246.1109
 20
-35.5351
 30
0.0
 10
246.1109
 20
-35.5351
 30
0.0
 10
246.1109
 20
-35.5351
 30
0.0
 10
245.8894
 20
-35.75670000000001
 30
0.0
 10
245.8894
 20
-35.75670000000001
 30
0.0
 10
245.8894
 20
-35.75670000000001
 30
0.0
 10
245.8894
 20
-35.75670000000001
 30
0.0
 10
245.44
 20
-35.75670000000001
 30
0.0
 10
245.44
 20
-35.75670000000001
 30
0.0
 10
245.44
 20
-35.75670000000001
 30
0.0
 10
245.44
 20
-35.75670000000001
 30
0.0
 10
245.2122
 20
-35.9845
 30
0.0
 10
245.2122
 20
-35.9845
 30
0.0
 10
245.2122
 20
-35.9845
 30
0.0
 10
245.2122
 20
-35.9845
 30
0.0
 10
245.2122
 20
-36.4339
 30
0.0
 10
245.2122
 20
-36.4339
 30
0.0
 10
245.2122
 20
-36.4339
 30
0.0
 10
245.2122
 20
-36.4339
 30
0.0
 10
246.1109
 20
-36.4339
 30
0.0
 10
246.1109
 20
-36.4339
 30
0.0
  0
SPLINE
  5
26B
330
1F
100
AcDbEntity
  8
DEFPOINTS
370
    25
100
AcDbSpline
210
0.0
220
0.0
230
1.0
 70
    11
 71
     3
 72
    36
 73
    32
 74
     0
 42
0.0000000001
 43
0.0000000001
 40
0.0
 40
0.0
 40
0.0
 40
0.0
 40
0.125
 40
0.125
 40
0.125
 40
0.125
 40
0.25
 40
0.25
 40
0.25
 40
0.25
 40
0.375
 40
0.375
 40
0.375
 40
0.375
 40
0.5
 40
0.5
 40
0.5
 40
0.5
 40
0.625
 40
0.625
 40
0.625
 40
0.625
 40
0.75
 40
0.75
 40
0.75
 40
0.75
 40
0.875
 40
0.875
 40
0.875
 40
0.875
 40
1.0
 40
1.0
 40
1.0
 40
1.0
 10
246.7882
 20
-36.4339
 30
0.0
 10
246.7882
 20
-36.4339
 30
0.0
 10
246.5603
 20
-36.206
 30
0.0
 10
246.5603
 20
-36.206
 30
0.0
 10
246.5603
 20
-36.206
 30
0.0
 10
246.5603
 20
-36.206
 30
0.0
 10
246.5603
 20
-35.3073
 30
0.0
 10
246.5603
 20
-35.3073
 30
0.0
 10
246.5603
 20
-35.3073
 30
0.0
 10
246.5603
 20
-35.3073
 30
0.0
 10
246.7882
 20
-35.0858
 30
0.0
 10
246.7882
 20
-35.0858
 30
0.0
 10
246.7882
 20
-35.0858
 30
0.0
 10
246.7882
 20
-35.0858
 30
0.0
 10
247.0097
 20
-35.0858
 30
0.0
 10
247.0097
 20
-35.0858
 30
0.0
 10
247.0097
 20
-35.0858
 30
0.0
 10
247.0097
 20
-35.0858
 30
0.0
 10
247.2375
 20
-35.3073
 30
0.0
 10
247.2375
 20
-35.3073
 30
0.0
 10
247.2375
 20
-35.3073
 30
0.0
 10
247.2375
 20
-35.3073
 30
0.0
 10
247.2375
 20
-36.206
 30
0.0
 10
247.2375
 20
-36.206
 30
0.0
 10
247.2375
 20
-36.206
 30
0.0
 10
247.2375
 20
-36.206
 30
0.0
 10
247.0097
 20
-36.4339
 30
0.0
 10
247.0097
 20
-36.4339
 30
0.0
 10
247.0097
 20
-36.4339
 30
0.0
 10
247.0097
 20
-36.4339
 30
0.0
 10
246.7882
 20
-36.4339
 30
0.0
 10
246.7882
 20
-36.4339
 30
0.0
  0
SPLINE
  5
26C
330
1F
100
AcDbEntity
  8
DEFPOINTS
370
    25
100
AcDbSpline
210
0.0
220
0.0
230
1.0
 70
    24
 71
     3
 72
     8
 73
     4
 74
     0
 42
0.0000000001
 43
0.0000000001
 40
0.0
 40
0.0
 40
0.0
 40
0.0
 40
1.0
 40
1.0
 40
1.0
 40
1.0
 10
247.6869
 20
-35.5351
 30
0.0
 10
247.6869
 20
-35.5351
 30
0.0
 10
247.9148
 20
-35.0858
 30
0.0
 10
247.9148
 20
-35.0858
 30
0.0
  0
SPLINE
  5
26D
330
1F
100
AcDbEntity
  8
DEFPOINTS
370
    25
100
AcDbSpline
210
0.0
220
0.0
230
1.0
 70
    24
 71
     3
 72
     8
 73
     4
 74
     0
 42
0.0000000001
 43
0.0000000001
 40
0.0
 40
0.0
 40
0.0
 40
0.0
 40
1.0
 40
1.0
 40
1.0
 40
1.0
 10
248.1363
 20
-35.0858
 30
0.0
 10
248.1363
 20
-35.0858
 30
0.0
 10
247.9148
 20
-35.5351
 30
0.0
 10
247.9148
 20
-35.5351
 30
0.0
  0
SPLINE
  5
26E
330
1F
100
AcDbEntity
  8
DEFPOINTS
370
    25
100
AcDbSpline
210
0.0
220
0.0
230
1.0
 70
    24
 71
     3
 72
     8
 73
     4
 74
     0
 42
0.0000000001
 43
0.0000000001
 40
0.0
 40
0.0
 40
0.0
 40
0.0
 40
1.0
 40
1.0
 40
1.0
 40
1.0
 10
250.706
 20
-23.4209
 30
0.0
 10
250.706
 20
-23.4209
 30
0.0
 10
250.9908
 20
-23.4209
 30
0.0
 10
250.9908
 20
-23.4209
 30
0.0
  0
SPLINE
  5
26F
330
1F
100
AcDbEntity
  8
DEFPOINTS
370
    25
100
AcDbSpline
210
0.0
220
0.0
230
1.0
 70
    24
 71
     3
 72
     8
 73
     4
 74
     0
 42
0.0000000001
 43
0.0000000001
 40
0.0
 40
0.0
 40
0.0
 40
0.0
 40
1.0
 40
1.0
 40
1.0
 40
1.0
 10
249.3389
 20
-48.0987
 30
0.0
 10
249.3389
 20
-48.0987
 30
0.0
 10
249.3768
 20
-48.0987
 30
0.0
 10
249.3768
 20
-48.0987
 30
0.0
  0
SPLINE
  5
270
330
1F
100
AcDbEntity
  8
DEFPOINTS
370
    25
100
AcDbSpline
210
0.0
220
0.0
230
1.0
 70
    24
 71
     3
 72
     8
 73
     4
 74
     0
 42
0.0000000001
 43
0.0000000001
 40
0.0
 40
0.0
 40
0.0
 40
0.0
 40
1.0
 40
1.0
 40
1.0
 40
1.0
 10
250.1807
 20
-24.769
 30
0.0
 10
250.1807
 20
-24.769
 30
0.0
 10
250.1807
 20
-34.2756
 30
0.0
 10
250.1807
 20
-34.2756
 30
0.0
  0
SPLINE
  5
271
330
1F
100
AcDbEntity
  8
DEFPOINTS
370
    25
100
AcDbSpline
210
0.0
220
0.0
230
1.0
 70
    24
 71
     3
 72
     8
 73
     4
 74
     0
 42
0.0000000001
 43
0.0000000001
 40
0.0
 40
0.0
 40
0.0
 40
0.0
 40
1.0
 40
1.0
 40
1.0
 40
1.0
 10
250.1807
 20
-46.7506
 30
0.0
 10
250.1807
 20
-46.7506
 30
0.0
 10
250.1807
 20
-37.244
 30
0.0
 10
250.1807
 20
-37.244
 30
0.0
  0
SPLINE
  5
272
330
1F
100
AcDbEntity
  8
DEFPOINTS
100
AcDbSpline
210
0.0
220
0.0
230
1.0
 70
    11
 71
     3
 72
    16
 73
    12
 74
     0
 42
0.0000000001
 43
0.0000000001
 40
0.0
 40
0.0
 40
0.0
 40
0.0
 40
0.3333333333333333
 40
0.3333333333333333
 40
0.3333333333333333
 40
0.3333333333333333
 40
0.6666666666666666
 40
0.6666666666666666
 40
0.6666666666666666
 40
0.6666666666666666
 40
1.0
 40
1.0
 40
1.0
 40
1.0
 10
249.9591
 20
-24.769
 30
0.0
 10
249.9591
 20
-24.769
 30
0.0
 10
250.4085
 20
-24.769
 30
0.0
 10
250.4085
 20
-24.769
 30
0.0
 10
250.4085
 20
-24.769
 30
0.0
 10
250.4085
 20
-24.769
 30
0.0
 10
250.1807
 20
-23.4209
 30
0.0
 10
250.1807
 20
-23.4209
 30
0.0
 10
250.1807
 20
-23.4209
 30
0.0
 10
250.1807
 20
-23.4209
 30
0.0
 10
249.9591
 20
-24.769
 30
0.0
 10
249.9591
 20
-24.769
 30
0.0
  0
SPLINE
  5
273
330
1F
100
AcDbEntity
  8
DEFPOINTS
100
AcDbSpline
210
0.0
220
0.0
230
1.0
 70
    11
 71
     3
 72
    16
 73
    12
 74
     0
 42
0.0000000001
 43
0.0000000001
 40
0.0
 40
0.0
 40
0.0
 40
0.0
 40
0.3333333333333333
 40
0.3333333333333333
 40
0.3333333333333333
 40
0.3333333333333333
 40
0.6666666666666666
 40
0.6666666666666666
 40
0.6666666666666666
 40
0.6666666666666666
 40
1.0
 40
1.0
 40
1.0
 40
1.0
 10
249.9591
 20
-46.7506
 30
0.0
 10
249.9591
 20
-46.7506
 30
0.0
 10
250.4085
 20
-46.7506
 30
0.0
 10
250.4085
 20
-46.7506
 30
0.0
 10
250.4085
 20
-46.7506
 30
0.0
 10
250.4085
 20
-46.7506
 30
0.0
 10
250.1807
 20
-48.0987
 30
0.0
 10
250.1807
 20
-48.0987
 30
0.0
 10
250.1807
 20
-48.0987
 30
0.0
 10
250.1807
 20
-48.0987
 30
0.0
 10
249.9591
 20
-46.7506
 30
0.0
 10
249.9591
 20
-46.7506
 30
0.0
  0
SPLINE
  5
274
330
1F
100
AcDbEntity
  8
DEFPOINTS
370
    25
100
AcDbSpline
210
0.0
220
0.0
230
1.0
 70
     8
 71
     3
 72
    40
 73
    36
 74
     0
 42
0.0000000001
 43
0.0000000001
 40
0.0
 40
0.0
 40
0.0
 40
0.0
 40
0.1111111111111111
 40
0.1111111111111111
 40
0.1111111111111111
 40
0.1111111111111111
 40
0.2222222222222222
 40
0.2222222222222222
 40
0.2222222222222222
 40
0.2222222222222222
 40
0.3333333333333333
 40
0.3333333333333333
 40
0.3333333333333333
 40
0.3333333333333333
 40
0.4444444444444445
 40
0.4444444444444445
 40
0.4444444444444445
 40
0.4444444444444445
 40
0.5555555555555556
 40
0.5555555555555556
 40
0.5555555555555556
 40
0.5555555555555556
 40
0.6666666666666668
 40
0.6666666666666668
 40
0.6666666666666668
 40
0.6666666666666668
 40
0.7777777777777779
 40
0.7777777777777779
 40
0.7777777777777779
 40
0.7777777777777779
 40
0.8888888888888891
 40
0.8888888888888891
 40
0.8888888888888891
 40
0.8888888888888891
 40
1.0
 40
1.0
 40
1.0
 40
1.0
 10
248.8325
 20
-35.3073
 30
0.0
 10
248.8325
 20
-35.3073
 30
0.0
 10
249.0604
 20
-35.0858
 30
0.0
 10
249.0604
 20
-35.0858
 30
0.0
 10
249.0604
 20
-35.0858
 30
0.0
 10
249.0604
 20
-35.0858
 30
0.0
 10
249.5097
 20
-35.0858
 30
0.0
 10
249.5097
 20
-35.0858
 30
0.0
 10
249.5097
 20
-35.0858
 30
0.0
 10
249.5097
 20
-35.0858
 30
0.0
 10
249.7313
 20
-35.3073
 30
0.0
 10
249.7313
 20
-35.3073
 30
0.0
 10
249.7313
 20
-35.3073
 30
0.0
 10
249.7313
 20
-35.3073
 30
0.0
 10
249.7313
 20
-35.5351
 30
0.0
 10
249.7313
 20
-35.5351
 30
0.0
 10
249.7313
 20
-35.5351
 30
0.0
 10
249.7313
 20
-35.5351
 30
0.0
 10
249.5097
 20
-35.75670000000001
 30
0.0
 10
249.5097
 20
-35.75670000000001
 30
0.0
 10
249.5097
 20
-35.75670000000001
 30
0.0
 10
249.5097
 20
-35.75670000000001
 30
0.0
 10
249.0604
 20
-35.75670000000001
 30
0.0
 10
249.0604
 20
-35.75670000000001
 30
0.0
 10
249.0604
 20
-35.75670000000001
 30
0.0
 10
249.0604
 20
-35.75670000000001
 30
0.0
 10
248.8325
 20
-35.9845
 30
0.0
 10
248.8325
 20
-35.9845
 30
0.0
 10
248.8325
 20
-35.9845
 30
0.0
 10
248.8325
 20
-35.9845
 30
0.0
 10
248.8325
 20
-36.4339
 30
0.0
 10
248.8325
 20
-36.4339
 30
0.0
 10
248.8325
 20
-36.4339
 30
0.0
 10
248.8325
 20
-36.4339
 30
0.0
 10
249.7313
 20
-36.4339
 30
0.0
 10
249.7313
 20
-36.4339
 30
0.0
  0
SPLINE
  5
275
330
1F
100
AcDbEntity
  8
DEFPOINTS
370
    25
100
AcDbSpline
210
0.0
220
0.0
230
1.0
 70
     8
 71
     3
 72
    12
 73
     8
 74
     0
 42
0.0000000001
 43
0.0000000001
 40
0.0
 40
0.0
 40
0.0
 40
0.0
 40
0.5
 40
0.5
 40
0.5
 40
0.5
 40
1.0
 40
1.0
 40
1.0
 40
1.0
 10
250.1807
 20
-35.3073
 30
0.0
 10
250.1807
 20
-35.3073
 30
0.0
 10
250.4085
 20
-35.0858
 30
0.0
 10
250.4085
 20
-35.0858
 30
0.0
 10
250.4085
 20
-35.0858
 30
0.0
 10
250.4085
 20
-35.0858
 30
0.0
 10
250.4085
 20
-36.4339
 30
0.0
 10
250.4085
 20
-36.4339
 30
0.0
  0
SPLINE
  5
276
330
1F
100
AcDbEntity
  8
DEFPOINTS
370
    25
100
AcDbSpline
210
0.0
220
0.0
230
1.0
 70
    24
 71
     3
 72
     8
 73
     4
 74
     0
 42
0.0000000001
 43
0.0000000001
 40
0.0
 40
0.0
 40
0.0
 40
0.0
 40
1.0
 40
1.0
 40
1.0
 40
1.0
 10
250.1807
 20
-36.4339
 30
0.0
 10
250.1807
 20
-36.4339
 30
0.0
 10
250.6364
 20
-36.4339
 30
0.0
 10
250.6364
 20
-36.4339
 30
0.0
  0
SPLINE
  5
277
330
1F
100
AcDbEntity
  8
DEFPOINTS
370
    25
100
AcDbSpline
210
0.0
220
0.0
230
1.0
 70
    24
 71
     3
 72
     8
 73
     4
 74
     0
 42
0.0000000001
 43
0.0000000001
 40
0.0
 40
0.0
 40
0.0
 40
0.0
 40
1.0
 40
1.0
 40
1.0
 40
1.0
 10
251.0857
 20
-35.5351
 30
0.0
 10
251.0857
 20
-35.5351
 30
0.0
 10
251.3073
 20
-35.0858
 30
0.0
 10
251.3073
 20
-35.0858
 30
0.0
  0
SPLINE
  5
278
330
1F
100
AcDbEntity
  8
DEFPOINTS
370
    25
100
AcDbSpline
210
0.0
220
0.0
230
1.0
 70
    24
 71
     3
 72
     8
 73
     4
 74
     0
 42
0.0000000001
 43
0.0000000001
 40
0.0
 40
0.0
 40
0.0
 40
0.0
 40
1.0
 40
1.0
 40
1.0
 40
1.0
 10
251.5351
 20
-35.0858
 30
0.0
 10
251.5351
 20
-35.0858
 30
0.0
 10
251.3073
 20
-35.5351
 30
0.0
 10
251.3073
 20
-35.5351
 30
0.0
  0
ENDSEC
  0
SECTION
  2
OBJECTS
  0
DICTIONARY
  5
C
330
0
100
AcDbDictionary
281
     1
  3
ACAD_COLOR
350
281
  3
ACAD_GROUP
350
D
  3
ACAD_LAYOUT
350
1A
  3
ACAD_MATERIAL
350
280
  3
ACAD_MLEADERSTYLE
350
27A
  3
ACAD_MLINESTYLE
350
17
  3
ACAD_PLOTSETTINGS
350
19
  3
ACAD_PLOTSTYLENAME
350
E
  3
ACAD_SCALELIST
350
3B
  3
ACAD_TABLESTYLE
350
279
  3
ACAD_VISUALSTYLE
350
2A
  3
ACDBHEADERROUNDTRIPXREC
350
289
  3
AcDbVariableDictionary
350
283
  3
DWGPROPS
350
288
  0
DICTIONARY
  5
281
102
{ACAD_REACTORS
330
C
102
}
330
C
100
AcDbDictionary
281
     1
  0
DICTIONARY
  5
D
102
{ACAD_REACTORS
330
C
102
}
330
C
100
AcDbDictionary
281
     1
  0
DICTIONARY
  5
1A
102
{ACAD_REACTORS
330
C
102
}
330
C
100
AcDbDictionary
281
     1
  3
Layout1
350
1E
  3
Layout2
350
26
  3
Model
350
22
  0
DICTIONARY
  5
280
102
{ACAD_REACTORS
330
C
102
}
330
C
100
AcDbDictionary
281
     1
  0
DICTIONARY
  5
27A
102
{ACAD_REACTORS
330
C
102
}
330
C
100
AcDbDictionary
281
     1
  0
DICTIONARY
  5
17
102
{ACAD_REACTORS
330
C
102
}
330
C
100
AcDbDictionary
281
     1
  3
Standard
350
18
  0
DICTIONARY
  5
19
102
{ACAD_REACTORS
330
C
102
}
330
C
100
AcDbDictionary
281
     1
  0
ACDBDICTIONARYWDFLT
  5
E
102
{ACAD_REACTORS
330
C
102
}
330
C
100
AcDbDictionary
281
     1
  3
Normal
350
F
100
AcDbDictionaryWithDefault
340
F
  0
DICTIONARY
  5
3B
102
{ACAD_REACTORS
330
C
102
}
330
C
100
AcDbDictionary
281
     1
  3
A0
350
3C
  3
A1
350
3D
  3
A2
350
3E
  3
A3
350
3F
  3
A4
350
40
  3
A5
350
41
  3
A6
350
42
  3
A7
350
43
  3
A8
350
44
  3
A9
350
45
  3
B0
350
46
  3
B1
350
47
  3
B2
350
48
  3
B3
350
49
  3
B4
350
4A
  3
B5
350
4B
  3
B6
350
4C
  3
B7
350
4D
  3
B8
350
4E
  3
B9
350
4F
  3
C0
350
50
  3
C1
350
51
  3
C2
350
52
  3
C3
350
53
  3
C4
350
54
  3
C5
350
55
  3
C6
350
56
  3
C7
350
57
  3
C8
350
58
  3
C9
350
59
  3
D0
350
5A
  3
D1
350
5B
  3
D2
350
5C
  0
DICTIONARY
  5
279
102
{ACAD_REACTORS
330
C
102
}
330
C
100
AcDbDictionary
281
     1
  0
DICTIONARY
  5
2A
102
{ACAD_REACTORS
330
C
102
}
330
C
100
AcDbDictionary
281
     1
  3
2dWireframe
350
2F
  3
3D Hidden
350
31
  3
3dWireframe
350
30
  3
Basic
350
32
  3
Brighten
350
36
  3
ColorChange
350
3A
  3
Conceptual
350
34
  3
Dim
350
35
  3
Facepattern
350
39
  3
Flat
350
2B
  3
FlatWithEdges
350
2C
  3
Gouraud
350
2D
  3
GouraudWithEdges
350
2E
  3
Linepattern
350
38
  3
Realistic
350
33
  3
Thicken
350
37
  0
DICTIONARY
  5
289
102
{ACAD_REACTORS
330
C
102
}
330
C
100
AcDbDictionary
281
     1
  3
COLORDICT
350
28B
  3
MATERIALDICT
350
28A
  0
DICTIONARY
  5
283
102
{ACAD_REACTORS
330
C
102
}
330
C
100
AcDbDictionary
281
     1
  3
DIMASSOC
350
285
  3
HIDETEXT
350
284
  3
PROJECTNAME
350
286
  0
XRECORD
  5
288
102
{ACAD_REACTORS
330
C
102
}
330
C
100
AcDbXrecord
280
     1
  1
DWGPROPS COOKIE
  2

  3

  4

  6

  7

  8

  9

300
=
301
=
302
=
303
=
304
=
305
=
306
=
307
=
308
=
309
=
 40
0.0006854166666667
 41
2457364.621691262
 42
2457364.622561123
  1

 90
        0
  0
LAYOUT
  5
1E
102
{ACAD_XDICTIONARY
360
28C
102
}
102
{ACAD_REACTORS
330
1A
102
}
330
1A
100
AcDbPlotSettings
  1

  2
none_device
  4

  6

 40
0.0
 41
0.0
 42
0.0
 43
0.0
 44
0.0
 45
0.0
 46
0.0
 47
0.0
 48
0.0
 49
0.0
140
0.0
141
0.0
142
1.0
143
1.0
 70
   688
 72
     0
 73
     0
 74
     5
  7

 75
    16
147
1.0
148
0.0
149
0.0
100
AcDbLayout
  1
Layout1
 70
     1
 71
     1
 10
0.0
 20
0.0
 11
12.0
 21
9.0
 12
0.0
 22
0.0
 32
0.0
 14
1.000000000000000E+20
 24
1.000000000000000E+20
 34
1.000000000000000E+20
 15
-1.000000000000000E+20
 25
-1.000000000000000E+20
 35
-1.000000000000000E+20
146
0.0
 13
0.0
 23
0.0
 33
0.0
 16
1.0
 26
0.0
 36
0.0
 17
0.0
 27
1.0
 37
0.0
 76
     0
330
1B
  0
LAYOUT
  5
26
102
{ACAD_XDICTIONARY
360
290
102
}
102
{ACAD_REACTORS
330
1A
102
}
330
1A
100
AcDbPlotSettings
  1

  2
none_device
  4

  6

 40
0.0
 41
0.0
 42
0.0
 43
0.0
 44
0.0
 45
0.0
 46
0.0
 47
0.0
 48
0.0
 49
0.0
140
0.0
141
0.0
142
1.0
143
1.0
 70
   688
 72
     0
 73
     0
 74
     5
  7

 75
    16
147
1.0
148
0.0
149
0.0
100
AcDbLayout
  1
Layout2
 70
     1
 71
     2
 10
0.0
 20
0.0
 11
0.0
 21
0.0
 12
0.0
 22
0.0
 32
0.0
 14
0.0
 24
0.0
 34
0.0
 15
0.0
 25
0.0
 35
0.0
146
0.0
 13
0.0
 23
0.0
 33
0.0
 16
1.0
 26
0.0
 36
0.0
 17
0.0
 27
1.0
 37
0.0
 76
     0
330
23
  0
LAYOUT
  5
22
102
{ACAD_XDICTIONARY
360
28E
102
}
102
{ACAD_REACTORS
330
1A
102
}
330
1A
100
AcDbPlotSettings
  1

  2
none_device
  4

  6

 40
0.0
 41
0.0
 42
0.0
 43
0.0
 44
0.0
 45
0.0
 46
0.0
 47
0.0
 48
0.0
 49
0.0
140
0.0
141
0.0
142
1.0
143
1.0
 70
  1712
 72
     0
 73
     0
 74
     0
  7

 75
     0
147
1.0
148
0.0
149
0.0
100
AcDbLayout
  1
Model
 70
     1
 71
     0
 10
0.0
 20
0.0
 11
12.0
 21
9.0
 12
0.0
 22
0.0
 32
0.0
 14
142.4807
 24
-106.4492
 34
0.0
 15
322.7342
 25
28.793
 35
0.0
146
0.0
 13
0.0
 23
0.0
 33
0.0
 16
1.0
 26
0.0
 36
0.0
 17
0.0
 27
1.0
 37
0.0
 76
     0
330
1F
331
29
  0
MLINESTYLE
  5
18
102
{ACAD_REACTORS
330
17
102
}
330
17
100
AcDbMlineStyle
  2
STANDARD
 70
     0
  3

 62
   256
 51
90.0
 52
90.0
 71
     2
 49
0.5
 62
   256
  6
BYLAYER
 49
-0.5
 62
   256
  6
BYLAYER
  0
ACDBPLACEHOLDER
  5
F
102
{ACAD_REACTORS
330
E
102
}
330
E
  0
ACAD_PROXY_OBJECT
  5
3C
102
{ACAD_REACTORS
330
3B
102
}
330
3B
100
AcDbProxyObject
 90
      499
 91
      502
 95
       25
 70
     1
100
AcDbScale
 70
     0
300
1:1
140
1.0
141
1.0
290
     1
1001
ACAD
1000
AcRTDxfName
1000
SCALE
  0
ACAD_PROXY_OBJECT
  5
3D
102
{ACAD_REACTORS
330
3B
102
}
330
3B
100
AcDbProxyObject
 90
      499
 91
      502
 95
       25
 70
     1
100
AcDbScale
 70
     0
300
1:2
140
1.0
141
2.0
290
     0
1001
ACAD
1000
AcRTDxfName
1000
SCALE
  0
ACAD_PROXY_OBJECT
  5
3E
102
{ACAD_REACTORS
330
3B
102
}
330
3B
100
AcDbProxyObject
 90
      499
 91
      502
 95
       25
 70
     1
100
AcDbScale
 70
     0
300
1:4
140
1.0
141
4.0
290
     0
1001
ACAD
1000
AcRTDxfName
1000
SCALE
  0
ACAD_PROXY_OBJECT
  5
3F
102
{ACAD_REACTORS
330
3B
102
}
330
3B
100
AcDbProxyObject
 90
      499
 91
      502
 95
       25
 70
     1
100
AcDbScale
 70
     0
300
1:5
140
1.0
141
5.0
290
     0
1001
ACAD
1000
AcRTDxfName
1000
SCALE
  0
ACAD_PROXY_OBJECT
  5
40
102
{ACAD_REACTORS
330
3B
102
}
330
3B
100
AcDbProxyObject
 90
      499
 91
      502
 95
       25
 70
     1
100
AcDbScale
 70
     0
300
1:8
140
1.0
141
8.0
290
     0
1001
ACAD
1000
AcRTDxfName
1000
SCALE
  0
ACAD_PROXY_OBJECT
  5
41
102
{ACAD_REACTORS
330
3B
102
}
330
3B
100
AcDbProxyObject
 90
      499
 91
      502
 95
       25
 70
     1
100
AcDbScale
 70
     0
300
1:10
140
1.0
141
10.0
290
     0
1001
ACAD
1000
AcRTDxfName
1000
SCALE
  0
ACAD_PROXY_OBJECT
  5
42
102
{ACAD_REACTORS
330
3B
102
}
330
3B
100
AcDbProxyObject
 90
      499
 91
      502
 95
       25
 70
     1
100
AcDbScale
 70
     0
300
1:16
140
1.0
141
16.0
290
     0
1001
ACAD
1000
AcRTDxfName
1000
SCALE
  0
ACAD_PROXY_OBJECT
  5
43
102
{ACAD_REACTORS
330
3B
102
}
330
3B
100
AcDbProxyObject
 90
      499
 91
      502
 95
       25
 70
     1
100
AcDbScale
 70
     0
300
1:20
140
1.0
141
20.0
290
     0
1001
ACAD
1000
AcRTDxfName
1000
SCALE
  0
ACAD_PROXY_OBJECT
  5
44
102
{ACAD_REACTORS
330
3B
102
}
330
3B
100
AcDbProxyObject
 90
      499
 91
      502
 95
       25
 70
     1
100
AcDbScale
 70
     0
300
1:30
140
1.0
141
30.0
290
     0
1001
ACAD
1000
AcRTDxfName
1000
SCALE
  0
ACAD_PROXY_OBJECT
  5
45
102
{ACAD_REACTORS
330
3B
102
}
330
3B
100
AcDbProxyObject
 90
      499
 91
      502
 95
       25
 70
     1
100
AcDbScale
 70
     0
300
1:40
140
1.0
141
40.0
290
     0
1001
ACAD
1000
AcRTDxfName
1000
SCALE
  0
ACAD_PROXY_OBJECT
  5
46
102
{ACAD_REACTORS
330
3B
102
}
330
3B
100
AcDbProxyObject
 90
      499
 91
      502
 95
       25
 70
     1
100
AcDbScale
 70
     0
300
1:50
140
1.0
141
50.0
290
     0
1001
ACAD
1000
AcRTDxfName
1000
SCALE
  0
ACAD_PROXY_OBJECT
  5
47
102
{ACAD_REACTORS
330
3B
102
}
330
3B
100
AcDbProxyObject
 90
      499
 91
      502
 95
       25
 70
     1
100
AcDbScale
 70
     0
300
1:100
140
1.0
141
100.0
290
     0
1001
ACAD
1000
AcRTDxfName
1000
SCALE
  0
ACAD_PROXY_OBJECT
  5
48
102
{ACAD_REACTORS
330
3B
102
}
330
3B
100
AcDbProxyObject
 90
      499
 91
      502
 95
       25
 70
     1
100
AcDbScale
 70
     0
300
2:1
140
2.0
141
1.0
290
     0
1001
ACAD
1000
AcRTDxfName
1000
SCALE
  0
ACAD_PROXY_OBJECT
  5
49
102
{ACAD_REACTORS
330
3B
102
}
330
3B
100
AcDbProxyObject
 90
      499
 91
      502
 95
       25
 70
     1
100
AcDbScale
 70
     0
300
4:1
140
4.0
141
1.0
290
     0
1001
ACAD
1000
AcRTDxfName
1000
SCALE
  0
ACAD_PROXY_OBJECT
  5
4A
102
{ACAD_REACTORS
330
3B
102
}
330
3B
100
AcDbProxyObject
 90
      499
 91
      502
 95
       25
 70
     1
100
AcDbScale
 70
     0
300
8:1
140
8.0
141
1.0
290
     0
1001
ACAD
1000
AcRTDxfName
1000
SCALE
  0
ACAD_PROXY_OBJECT
  5
4B
102
{ACAD_REACTORS
330
3B
102
}
330
3B
100
AcDbProxyObject
 90
      499
 91
      502
 95
       25
 70
     1
100
AcDbScale
 70
     0
300
10:1
140
10.0
141
1.0
290
     0
1001
ACAD
1000
AcRTDxfName
1000
SCALE
  0
ACAD_PROXY_OBJECT
  5
4C
102
{ACAD_REACTORS
330
3B
102
}
330
3B
100
AcDbProxyObject
 90
      499
 91
      502
 95
       25
 70
     1
100
AcDbScale
 70
     0
300
100:1
140
100.0
141
1.0
290
     0
1001
ACAD
1000
AcRTDxfName
1000
SCALE
  0
ACAD_PROXY_OBJECT
  5
4D
102
{ACAD_REACTORS
330
3B
102
}
330
3B
100
AcDbProxyObject
 90
      499
 91
      502
 95
       25
 70
     1
100
AcDbScale
 70
     0
300
1/128" = 1'-0"
140
0.0078125
141
12.0
290
     0
1001
ACAD
1000
AcRTDxfName
1000
SCALE
  0
ACAD_PROXY_OBJECT
  5
4E
102
{ACAD_REACTORS
330
3B
102
}
330
3B
100
AcDbProxyObject
 90
      499
 91
      502
 95
       25
 70
     1
100
AcDbScale
 70
     0
300
1/64" = 1'-0"
140
0.015625
141
12.0
290
     0
1001
ACAD
1000
AcRTDxfName
1000
SCALE
  0
ACAD_PROXY_OBJECT
  5
4F
102
{ACAD_REACTORS
330
3B
102
}
330
3B
100
AcDbProxyObject
 90
      499
 91
      502
 95
       25
 70
     1
100
AcDbScale
 70
     0
300
1/32" = 1'-0"
140
0.03125
141
12.0
290
     0
1001
ACAD
1000
AcRTDxfName
1000
SCALE
  0
ACAD_PROXY_OBJECT
  5
50
102
{ACAD_REACTORS
330
3B
102
}
330
3B
100
AcDbProxyObject
 90
      499
 91
      502
 95
       25
 70
     1
100
AcDbScale
 70
     0
300
1/16" = 1'-0"
140
0.0625
141
12.0
290
     0
1001
ACAD
1000
AcRTDxfName
1000
SCALE
  0
ACAD_PROXY_OBJECT
  5
51
102
{ACAD_REACTORS
330
3B
102
}
330
3B
100
AcDbProxyObject
 90
      499
 91
      502
 95
       25
 70
     1
100
AcDbScale
 70
     0
300
3/32" = 1'-0"
140
0.09375
141
12.0
290
     0
1001
ACAD
1000
AcRTDxfName
1000
SCALE
  0
ACAD_PROXY_OBJECT
  5
52
102
{ACAD_REACTORS
330
3B
102
}
330
3B
100
AcDbProxyObject
 90
      499
 91
      502
 95
       25
 70
     1
100
AcDbScale
 70
     0
300
1/8" = 1'-0"
140
0.125
141
12.0
290
     0
1001
ACAD
1000
AcRTDxfName
1000
SCALE
  0
ACAD_PROXY_OBJECT
  5
53
102
{ACAD_REACTORS
330
3B
102
}
330
3B
100
AcDbProxyObject
 90
      499
 91
      502
 95
       25
 70
     1
100
AcDbScale
 70
     0
300
3/16" = 1'-0"
140
0.1875
141
12.0
290
     0
1001
ACAD
1000
AcRTDxfName
1000
SCALE
  0
ACAD_PROXY_OBJECT
  5
54
102
{ACAD_REACTORS
330
3B
102
}
330
3B
100
AcDbProxyObject
 90
      499
 91
      502
 95
       25
 70
     1
100
AcDbScale
 70
     0
300
1/4" = 1'-0"
140
0.25
141
12.0
290
     0
1001
ACAD
1000
AcRTDxfName
1000
SCALE
  0
ACAD_PROXY_OBJECT
  5
55
102
{ACAD_REACTORS
330
3B
102
}
330
3B
100
AcDbProxyObject
 90
      499
 91
      502
 95
       25
 70
     1
100
AcDbScale
 70
     0
300
3/8" = 1'-0"
140
0.375
141
12.0
290
     0
1001
ACAD
1000
AcRTDxfName
1000
SCALE
  0
ACAD_PROXY_OBJECT
  5
56
102
{ACAD_REACTORS
330
3B
102
}
330
3B
100
AcDbProxyObject
 90
      499
 91
      502
 95
       25
 70
     1
100
AcDbScale
 70
     0
300
1/2" = 1'-0"
140
0.5
141
12.0
290
     0
1001
ACAD
1000
AcRTDxfName
1000
SCALE
  0
ACAD_PROXY_OBJECT
  5
57
102
{ACAD_REACTORS
330
3B
102
}
330
3B
100
AcDbProxyObject
 90
      499
 91
      502
 95
       25
 70
     1
100
AcDbScale
 70
     0
300
3/4" = 1'-0"
140
0.75
141
12.0
290
     0
1001
ACAD
1000
AcRTDxfName
1000
SCALE
  0
ACAD_PROXY_OBJECT
  5
58
102
{ACAD_REACTORS
330
3B
102
}
330
3B
100
AcDbProxyObject
 90
      499
 91
      502
 95
       25
 70
     1
100
AcDbScale
 70
     0
300
1" = 1'-0"
140
1.0
141
12.0
290
     0
1001
ACAD
1000
AcRTDxfName
1000
SCALE
  0
ACAD_PROXY_OBJECT
  5
59
102
{ACAD_REACTORS
330
3B
102
}
330
3B
100
AcDbProxyObject
 90
      499
 91
      502
 95
       25
 70
     1
100
AcDbScale
 70
     0
300
1-1/2" = 1'-0"
140
1.5
141
12.0
290
     0
1001
ACAD
1000
AcRTDxfName
1000
SCALE
  0
ACAD_PROXY_OBJECT
  5
5A
102
{ACAD_REACTORS
330
3B
102
}
330
3B
100
AcDbProxyObject
 90
      499
 91
      502
 95
       25
 70
     1
100
AcDbScale
 70
     0
300
3" = 1'-0"
140
3.0
141
12.0
290
     0
1001
ACAD
1000
AcRTDxfName
1000
SCALE
  0
ACAD_PROXY_OBJECT
  5
5B
102
{ACAD_REACTORS
330
3B
102
}
330
3B
100
AcDbProxyObject
 90
      499
 91
      502
 95
       25
 70
     1
100
AcDbScale
 70
     0
300
6" = 1'-0"
140
6.0
141
12.0
290
     0
1001
ACAD
1000
AcRTDxfName
1000
SCALE
  0
ACAD_PROXY_OBJECT
  5
5C
102
{ACAD_REACTORS
330
3B
102
}
330
3B
100
AcDbProxyObject
 90
      499
 91
      502
 95
       25
 70
     1
100
AcDbScale
 70
     0
300
1'-0" = 1'-0"
140
12.0
141
12.0
290
     0
1001
ACAD
1000
AcRTDxfName
1000
SCALE
  0
ACAD_PROXY_OBJECT
  5
2F
102
{ACAD_REACTORS
330
2A
102
}
330
2A
100
AcDbProxyObject
 90
      499
 91
      501
 95
       25
 70
     1
100
AcDbVisualStyle
  2
2dWireframe
 70
     4
 71
     0
 72
     2
 73
     0
 90
        0
 40
-0.6
 41
-30.0
 62
     5
 63
     7
421
 16777215
 74
     1
 91
        4
 64
     7
 65
   257
 75
     1
175
     1
 42
1.0
 92
        0
 66
   257
 43
1.0
 76
     1
 77
     6
 78
     2
 67
     7
 79
     5
170
     0
171
     0
290
     0
174
     0
 93
        1
 44
0.0
173
     0
291
     0
 45
0.0
1001
ACAD
1000
AcDbSavedByObjectVersion
1070
     0
1001
ACAD
1000
AcRTDxfName
1000
VISUALSTYLE
  0
ACAD_PROXY_OBJECT
  5
31
102
{ACAD_REACTORS
330
2A
102
}
330
2A
100
AcDbProxyObject
 90
      499
 91
      501
 95
       25
 70
     1
100
AcDbVisualStyle
  2
3D Hidden
 70
     6
 71
     1
 72
     2
 73
     2
 90
        0
 40
-0.6
 41
-30.0
 62
     5
 63
     7
421
 16777215
 74
     2
 91
        2
 64
     7
 65
   257
 75
     2
175
     1
 42
40.0
 92
        0
 66
   257
 43
1.0
 76
     1
 77
     6
 78
     2
 67
     7
 79
     3
170
     0
171
     0
290
     0
174
     0
 93
        1
 44
0.0
173
     0
291
     0
 45
0.0
1001
ACAD
1000
AcDbSavedByObjectVersion
1070
     0
1001
ACAD
1000
AcRTDxfName
1000
VISUALSTYLE
  0
ACAD_PROXY_OBJECT
  5
30
102
{ACAD_REACTORS
330
2A
102
}
330
2A
100
AcDbProxyObject
 90
      499
 91
      501
 95
       25
 70
     1
100
AcDbVisualStyle
  2
3dWireframe
 70
     5
 71
     0
 72
     2
 73
     0
 90
        0
 40
-0.6
 41
-30.0
 62
     5
 63
     7
421
 16777215
 74
     1
 91
        4
 64
     7
 65
   257
 75
     1
175
     1
 42
1.0
 92
        0
 66
   257
 43
1.0
 76
     1
 77
     6
 78
     2
 67
     7
 79
     5
170
     0
171
     0
290
     0
174
     0
 93
        1
 44
0.0
173
     0
291
     0
 45
0.0
1001
ACAD
1000
AcDbSavedByObjectVersion
1070
     0
1001
ACAD
1000
AcRTDxfName
1000
VISUALSTYLE
  0
ACAD_PROXY_OBJECT
  5
32
102
{ACAD_REACTORS
330
2A
102
}
330
2A
100
AcDbProxyObject
 90
      499
 91
      501
 95
       25
 70
     1
100
AcDbVisualStyle
  2
Basic
 70
     7
 71
     1
 72
     0
 73
     1
 90
        0
 40
-0.6
 41
-30.0
 62
     5
 63
     7
421
 16777215
 74
     0
 91
        4
 64
     7
 65
   257
 75
     1
175
     1
 42
1.0
 92
        8
 66
     7
 43
1.0
 76
     1
 77
     6
 78
     2
 67
     7
 79
     5
170
     0
171
     0
290
     0
174
     0
 93
        1
 44
0.0
173
     0
291
     1
 45
0.0
1001
ACAD
1000
AcDbSavedByObjectVersion
1070
     0
1001
ACAD
1000
AcRTDxfName
1000
VISUALSTYLE
  0
ACAD_PROXY_OBJECT
  5
36
102
{ACAD_REACTORS
330
2A
102
}
330
2A
100
AcDbProxyObject
 90
      499
 91
      501
 95
       25
 70
     1
100
AcDbVisualStyle
  2
Brighten
 70
    12
 71
     2
 72
     2
 73
     0
 90
        0
 40
-0.6
 41
-30.0
 62
     5
 63
     7
421
 16777215
 74
     1
 91
        4
 64
     7
 65
   257
 75
     1
175
     1
 42
1.0
 92
        8
 66
     7
 43
1.0
 76
     1
 77
     6
 78
     2
 67
     7
 79
     5
170
     0
171
     0
290
     0
174
     0
 93
        1
 44
50.0
173
     0
291
     1
 45
0.0
1001
ACAD
1000
AcDbSavedByObjectVersion
1070
     0
1001
ACAD
1000
AcRTDxfName
1000
VISUALSTYLE
  0
ACAD_PROXY_OBJECT
  5
3A
102
{ACAD_REACTORS
330
2A
102
}
330
2A
100
AcDbProxyObject
 90
      499
 91
      501
 95
       25
 70
     1
100
AcDbVisualStyle
  2
ColorChange
 70
    16
 71
     2
 72
     2
 73
     3
 90
        0
 40
-0.6
 41
-30.0
 62
     5
 63
     8
421
  8421504
 74
     1
 91
        4
 64
     7
 65
   257
 75
     1
175
     1
 42
1.0
 92
        8
 66
     8
424
  8421504
 43
1.0
 76
     1
 77
     6
 78
     2
 67
     7
 79
     5
170
     0
171
     0
290
     0
174
     0
 93
        1
 44
0.0
173
     0
291
     1
 45
0.0
1001
ACAD
1000
AcDbSavedByObjectVersion
1070
     0
1001
ACAD
1000
AcRTDxfName
1000
VISUALSTYLE
  0
ACAD_PROXY_OBJECT
  5
34
102
{ACAD_REACTORS
330
2A
102
}
330
2A
100
AcDbProxyObject
 90
      499
 91
      501
 95
       25
 70
     1
100
AcDbVisualStyle
  2
Conceptual
 70
     9
 71
     3
 72
     2
 73
     0
 90
        0
 40
-0.6
 41
-30.0
 62
     5
 63
     7
421
 16777215
 74
     2
 91
        2
 64
     7
 65
   257
 75
     1
175
     1
 42
40.0
 92
        8
 66
     7
 43
1.0
 76
     1
 77
     6
 78
     2
 67
     7
 79
     3
170
     0
171
     0
290
     0
174
     0
 93
        1
 44
0.0
173
     0
291
     0
 45
0.0
1001
ACAD
1000
AcDbSavedByObjectVersion
1070
     0
1001
ACAD
1000
AcRTDxfName
1000
VISUALSTYLE
  0
ACAD_PROXY_OBJECT
  5
35
102
{ACAD_REACTORS
330
2A
102
}
330
2A
100
AcDbProxyObject
 90
      499
 91
      501
 95
       25
 70
     1
100
AcDbVisualStyle
  2
Dim
 70
    11
 71
     2
 72
     2
 73
     0
 90
        0
 40
-0.6
 41
-30.0
 62
     5
 63
     7
421
 16777215
 74
     1
 91
        4
 64
     7
 65
   257
 75
     1
175
     1
 42
1.0
 92
        8
 66
     7
 43
1.0
 76
     1
 77
     6
 78
     2
 67
     7
 79
     5
170
     0
171
     0
290
     0
174
     0
 93
        1
 44
-50.0
173
     0
291
     1
 45
0.0
1001
ACAD
1000
AcDbSavedByObjectVersion
1070
     0
1001
ACAD
1000
AcRTDxfName
1000
VISUALSTYLE
  0
ACAD_PROXY_OBJECT
  5
39
102
{ACAD_REACTORS
330
2A
102
}
330
2A
100
AcDbProxyObject
 90
      499
 91
      501
 95
       25
 70
     1
100
AcDbVisualStyle
  2
Facepattern
 70
    15
 71
     2
 72
     2
 73
     0
 90
        0
 40
-0.6
 41
-30.0
 62
     5
 63
     7
421
 16777215
 74
     1
 91
        4
 64
     7
 65
   257
 75
     1
175
     1
 42
1.0
 92
        8
 66
     7
 43
1.0
 76
     1
 77
     6
 78
     2
 67
     7
 79
     5
170
     0
171
     0
290
     0
174
     0
 93
        1
 44
0.0
173
     0
291
     1
 45
0.0
1001
ACAD
1000
AcDbSavedByObjectVersion
1070
     0
1001
ACAD
1000
AcRTDxfName
1000
VISUALSTYLE
  0
ACAD_PROXY_OBJECT
  5
2B
102
{ACAD_REACTORS
330
2A
102
}
330
2A
100
AcDbProxyObject
 90
      499
 91
      501
 95
       25
 70
     1
100
AcDbVisualStyle
  2
Flat
 70
     0
 71
     2
 72
     1
 73
     1
 90
        2
 40
-0.6
 41
30.0
 62
     5
 63
     7
421
 16777215
 74
     0
 91
        4
 64
     7
 65
   257
 75
     1
175
     1
 42
1.0
 92
        8
 66
     7
 43
1.0
 76
     1
 77
     6
 78
     2
 67
     7
 79
     5
170
     0
171
     0
290
     0
174
     0
 93
       13
 44
0.0
173
     0
291
     1
 45
0.0
1001
ACAD
1000
AcDbSavedByObjectVersion
1070
     0
1001
ACAD
1000
AcRTDxfName
1000
VISUALSTYLE
  0
ACAD_PROXY_OBJECT
  5
2C
102
{ACAD_REACTORS
330
2A
102
}
330
2A
100
AcDbProxyObject
 90
      499
 91
      501
 95
       25
 70
     1
100
AcDbVisualStyle
  2
FlatWithEdges
 70
     1
 71
     2
 72
     1
 73
     1
 90
        2
 40
-0.6
 41
30.0
 62
     5
 63
     7
421
 16777215
 74
     1
 91
        4
 64
     7
 65
   257
 75
     1
175
     1
 42
1.0
 92
        0
 66
   257
 43
1.0
 76
     1
 77
     6
 78
     2
 67
     7
 79
     5
170
     0
171
     0
290
     0
174
     0
 93
       13
 44
0.0
173
     0
291
     1
 45
0.0
1001
ACAD
1000
AcDbSavedByObjectVersion
1070
     0
1001
ACAD
1000
AcRTDxfName
1000
VISUALSTYLE
  0
ACAD_PROXY_OBJECT
  5
2D
102
{ACAD_REACTORS
330
2A
102
}
330
2A
100
AcDbProxyObject
 90
      499
 91
      501
 95
       25
 70
     1
100
AcDbVisualStyle
  2
Gouraud
 70
     2
 71
     2
 72
     2
 73
     1
 90
        2
 40
-0.6
 41
30.0
 62
     5
 63
     7
421
 16777215
 74
     0
 91
        4
 64
     7
 65
   257
 75
     1
175
     1
 42
1.0
 92
        0
 66
     7
 43
1.0
 76
     1
 77
     6
 78
     2
 67
     7
 79
     5
170
     0
171
     0
290
     0
174
     0
 93
       13
 44
0.0
173
     0
291
     1
 45
0.0
1001
ACAD
1000
AcDbSavedByObjectVersion
1070
     0
1001
ACAD
1000
AcRTDxfName
1000
VISUALSTYLE
  0
ACAD_PROXY_OBJECT
  5
2E
102
{ACAD_REACTORS
330
2A
102
}
330
2A
100
AcDbProxyObject
 90
      499
 91
      501
 95
       25
 70
     1
100
AcDbVisualStyle
  2
GouraudWithEdges
 70
     3
 71
     2
 72
     2
 73
     1
 90
        2
 40
-0.6
 41
30.0
 62
     5
 63
     7
421
 16777215
 74
     1
 91
        4
 64
     7
 65
   257
 75
     1
175
     1
 42
1.0
 92
        0
 66
   257
 43
1.0
 76
     1
 77
     6
 78
     2
 67
     7
 79
     5
170
     0
171
     0
290
     0
174
     0
 93
       13
 44
0.0
173
     0
291
     1
 45
0.0
1001
ACAD
1000
AcDbSavedByObjectVersion
1070
     0
1001
ACAD
1000
AcRTDxfName
1000
VISUALSTYLE
  0
ACAD_PROXY_OBJECT
  5
38
102
{ACAD_REACTORS
330
2A
102
}
330
2A
100
AcDbProxyObject
 90
      499
 91
      501
 95
       25
 70
     1
100
AcDbVisualStyle
  2
Linepattern
 70
    14
 71
     2
 72
     2
 73
     0
 90
        0
 40
-0.6
 41
-30.0
 62
     5
 63
     7
421
 16777215
 74
     1
 91
        4
 64
     7
 65
   257
 75
     7
175
     7
 42
1.0
 92
        8
 66
     7
 43
1.0
 76
     1
 77
     6
 78
     2
 67
     7
 79
     5
170
     0
171
     0
290
     0
174
     0
 93
        1
 44
0.0
173
     0
291
     1
 45
0.0
1001
ACAD
1000
AcDbSavedByObjectVersion
1070
     0
1001
ACAD
1000
AcRTDxfName
1000
VISUALSTYLE
  0
ACAD_PROXY_OBJECT
  5
33
102
{ACAD_REACTORS
330
2A
102
}
330
2A
100
AcDbProxyObject
 90
      499
 91
      501
 95
       25
 70
     1
100
AcDbVisualStyle
  2
Realistic
 70
     8
 71
     2
 72
     2
 73
     0
 90
        0
 40
-0.6
 41
-30.0
 62
     5
 63
     7
421
 16777215
 74
     1
 91
        0
 64
     7
 65
   257
 75
     1
175
     1
 42
1.0
 92
        8
 66
     8
424
  7895160
 43
1.0
 76
     1
 77
     6
 78
     2
 67
     7
 79
     5
170
     0
171
     0
290
     0
174
     0
 93
       13
 44
0.0
173
     0
291
     0
 45
0.0
1001
ACAD
1000
AcDbSavedByObjectVersion
1070
     0
1001
ACAD
1000
AcRTDxfName
1000
VISUALSTYLE
  0
ACAD_PROXY_OBJECT
  5
37
102
{ACAD_REACTORS
330
2A
102
}
330
2A
100
AcDbProxyObject
 90
      499
 91
      501
 95
       25
 70
     1
100
AcDbVisualStyle
  2
Thicken
 70
    13
 71
     2
 72
     2
 73
     0
 90
        0
 40
-0.6
 41
-30.0
 62
     5
 63
     7
421
 16777215
 74
     1
 91
        4
 64
     7
 65
   257
 75
     1
175
     1
 42
1.0
 92
       12
 66
     7
 43
1.0
 76
     1
 77
     6
 78
     2
 67
     7
 79
     5
170
     0
171
     0
290
     0
174
     0
 93
        1
 44
0.0
173
     0
291
     1
 45
0.0
1001
ACAD
1000
AcDbSavedByObjectVersion
1070
     0
1001
ACAD
1000
AcRTDxfName
1000
VISUALSTYLE
  0
XRECORD
  5
28B
102
{ACAD_REACTORS
330
289
102
}
330
289
100
AcDbXrecord
280
     1
340
281
  0
XRECORD
  5
28A
102
{ACAD_REACTORS
330
289
102
}
330
289
100
AcDbXrecord
280
     1
340
280
  0
DICTIONARYVAR
  5
285
102
{ACAD_REACTORS
330
283
102
}
330
283
100
DictionaryVariables
280
     0
  1
2
  0
DICTIONARYVAR
  5
284
102
{ACAD_REACTORS
330
283
102
}
330
283
100
DictionaryVariables
280
     0
  1
1
  0
DICTIONARYVAR
  5
286
102
{ACAD_REACTORS
330
283
102
}
330
283
100
DictionaryVariables
280
     0
  1

  0
DICTIONARY
  5
28C
330
1E
100
AcDbDictionary
280
     1
281
     1
  3
ACAD_XREC_ROUNDTRIP
360
28D
  0
DICTIONARY
  5
290
330
26
100
AcDbDictionary
280
     1
281
     1
  3
ACAD_XREC_ROUNDTRIP
360
291
  0
DICTIONARY
  5
28E
330
22
100
AcDbDictionary
280
     1
281
     1
  3
ACAD_XREC_ROUNDTRIP
360
28F
  0
XRECORD
  5
28D
102
{ACAD_REACTORS
330
28C
102
}
330
28C
100
AcDbXrecord
280
     1
102
SHADEPLOT
 70
     0
102
SHADEPLOTRESLEVEL
 70
     2
102
SHADEPLOTCUSTOMDPI
 70
   300
  0
XRECORD
  5
291
102
{ACAD_REACTORS
330
290
102
}
330
290
100
AcDbXrecord
280
     1
102
SHADEPLOT
 70
     0
102
SHADEPLOTRESLEVEL
 70
     2
102
SHADEPLOTCUSTOMDPI
 70
   300
  0
XRECORD
  5
28F
102
{ACAD_REACTORS
330
28E
102
}
330
28E
100
AcDbXrecord
280
     1
102
SHADEPLOT
 70
     0
102
SHADEPLOTRESLEVEL
 70
     2
102
SHADEPLOTCUSTOMDPI
 70
   300
  0
ENDSEC
  0
EOF
