  0
SECTION
  2
HEADER
  9
$ACADVER
  1
AC1018
  9
$ACADMAINTVER
 70
     0
  9
$DWGCODEPAGE
  3
ANSI_936
  9
$INSBASE
 10
0.0
 20
0.0
 30
0.0
  9
$EXTMIN
 10
424.3238
 20
-8.57
 30
0.0
  9
$EXTMAX
 10
587.2221
 20
103.5502
 30
0.0
  9
$LIMMIN
 10
0.0
 20
0.0
  9
$LIMMAX
 10
12.0
 20
9.0
  9
$ORTHOMODE
 70
     0
  9
$REGENMODE
 70
     1
  9
$FILLMODE
 70
     1
  9
$QTEXTMODE
 70
     0
  9
$MIRRTEXT
 70
     1
  9
$LTSCALE
 40
1.0
  9
$ATTMODE
 70
     1
  9
$TEXTSIZE
 40
0.2
  9
$TRACEWID
 40
0.05
  9
$TEXTSTYLE
  7
Standard
  9
$CLAYER
  8
0
  9
$CELTYPE
  6
ByLayer
  9
$CECOLOR
 62
   256
  9
$CELTSCALE
 40
1.0
  9
$DISPSILH
 70
     0
  9
$DIMSCALE
 40
1.0
  9
$DIMASZ
 40
0.18
  9
$DIMEXO
 40
0.0625
  9
$DIMDLI
 40
0.38
  9
$DIMRND
 40
0.0
  9
$DIMDLE
 40
0.0
  9
$DIMEXE
 40
0.18
  9
$DIMTP
 40
0.0
  9
$DIMTM
 40
0.0
  9
$DIMTXT
 40
0.18
  9
$DIMCEN
 40
0.09
  9
$DIMTSZ
 40
0.0
  9
$DIMTOL
 70
     0
  9
$DIMLIM
 70
     0
  9
$DIMTIH
 70
     1
  9
$DIMTOH
 70
     1
  9
$DIMSE1
 70
     0
  9
$DIMSE2
 70
     0
  9
$DIMTAD
 70
     0
  9
$DIMZIN
 70
     0
  9
$DIMBLK
  1

  9
$DIMASO
 70
     1
  9
$DIMSHO
 70
     1
  9
$DIMPOST
  1

  9
$DIMAPOST
  1

  9
$DIMALT
 70
     0
  9
$DIMALTD
 70
     2
  9
$DIMALTF
 40
25.4
  9
$DIMLFAC
 40
1.0
  9
$DIMTOFL
 70
     0
  9
$DIMTVP
 40
0.0
  9
$DIMTIX
 70
     0
  9
$DIMSOXD
 70
     0
  9
$DIMSAH
 70
     0
  9
$DIMBLK1
  1

  9
$DIMBLK2
  1

  9
$DIMSTYLE
  2
Standard
  9
$DIMCLRD
 70
     0
  9
$DIMCLRE
 70
     0
  9
$DIMCLRT
 70
     0
  9
$DIMTFAC
 40
1.0
  9
$DIMGAP
 40
0.09
  9
$DIMJUST
 70
     0
  9
$DIMSD1
 70
     0
  9
$DIMSD2
 70
     0
  9
$DIMTOLJ
 70
     1
  9
$DIMTZIN
 70
     0
  9
$DIMALTZ
 70
     0
  9
$DIMALTTZ
 70
     0
  9
$DIMUPT
 70
     0
  9
$DIMDEC
 70
     4
  9
$DIMTDEC
 70
     4
  9
$DIMALTU
 70
     2
  9
$DIMALTTD
 70
     2
  9
$DIMTXSTY
  7
Standard
  9
$DIMAUNIT
 70
     0
  9
$DIMADEC
 70
     0
  9
$DIMALTRND
 40
0.0
  9
$DIMAZIN
 70
     0
  9
$DIMDSEP
 70
    46
  9
$DIMATFIT
 70
     3
  9
$DIMFRAC
 70
     0
  9
$DIMLDRBLK
  1

  9
$DIMLUNIT
 70
     2
  9
$DIMLWD
 70
    -2
  9
$DIMLWE
 70
    -2
  9
$DIMTMOVE
 70
     0
  9
$LUNITS
 70
     2
  9
$LUPREC
 70
     4
  9
$SKETCHINC
 40
0.1
  9
$FILLETRAD
 40
0.5
  9
$AUNITS
 70
     0
  9
$AUPREC
 70
     0
  9
$MENU
  1
.
  9
$ELEVATION
 40
0.0
  9
$PELEVATION
 40
0.0
  9
$THICKNESS
 40
0.0
  9
$LIMCHECK
 70
     0
  9
$CHAMFERA
 40
0.5
  9
$CHAMFERB
 40
0.5
  9
$CHAMFERC
 40
1.0
  9
$CHAMFERD
 40
0.0
  9
$SKPOLY
 70
     0
  9
$TDCREATE
 40
2457364.62526566
  9
$TDUCREATE
 40
2457364.291932326
  9
$TDUPDATE
 40
2457364.625265671
  9
$TDUUPDATE
 40
2457364.291932338
  9
$TDINDWG
 40
0.0000000116
  9
$TDUSRTIMER
 40
0.0000000116
  9
$USRTIMER
 70
     1
  9
$ANGBASE
 50
0.0
  9
$ANGDIR
 70
     0
  9
$PDMODE
 70
     0
  9
$PDSIZE
 40
0.0
  9
$PLINEWID
 40
0.0
  9
$SPLFRAME
 70
     0
  9
$SPLINETYPE
 70
     6
  9
$SPLINESEGS
 70
     8
  9
$HANDSEED
  5
28A
  9
$SURFTAB1
 70
     6
  9
$SURFTAB2
 70
     6
  9
$SURFTYPE
 70
     6
  9
$SURFU
 70
     6
  9
$SURFV
 70
     6
  9
$UCSBASE
  2

  9
$UCSNAME
  2

  9
$UCSORG
 10
0.0
 20
0.0
 30
0.0
  9
$UCSXDIR
 10
1.0
 20
0.0
 30
0.0
  9
$UCSYDIR
 10
0.0
 20
1.0
 30
0.0
  9
$UCSORTHOREF
  2

  9
$UCSORTHOVIEW
 70
     0
  9
$UCSORGTOP
 10
0.0
 20
0.0
 30
0.0
  9
$UCSORGBOTTOM
 10
0.0
 20
0.0
 30
0.0
  9
$UCSORGLEFT
 10
0.0
 20
0.0
 30
0.0
  9
$UCSORGRIGHT
 10
0.0
 20
0.0
 30
0.0
  9
$UCSORGFRONT
 10
0.0
 20
0.0
 30
0.0
  9
$UCSORGBACK
 10
0.0
 20
0.0
 30
0.0
  9
$PUCSBASE
  2

  9
$PUCSNAME
  2

  9
$PUCSORG
 10
0.0
 20
0.0
 30
0.0
  9
$PUCSXDIR
 10
1.0
 20
0.0
 30
0.0
  9
$PUCSYDIR
 10
0.0
 20
1.0
 30
0.0
  9
$PUCSORTHOREF
  2

  9
$PUCSORTHOVIEW
 70
     0
  9
$PUCSORGTOP
 10
0.0
 20
0.0
 30
0.0
  9
$PUCSORGBOTTOM
 10
0.0
 20
0.0
 30
0.0
  9
$PUCSORGLEFT
 10
0.0
 20
0.0
 30
0.0
  9
$PUCSORGRIGHT
 10
0.0
 20
0.0
 30
0.0
  9
$PUCSORGFRONT
 10
0.0
 20
0.0
 30
0.0
  9
$PUCSORGBACK
 10
0.0
 20
0.0
 30
0.0
  9
$USERI1
 70
     0
  9
$USERI2
 70
     0
  9
$USERI3
 70
     0
  9
$USERI4
 70
     0
  9
$USERI5
 70
     0
  9
$USERR1
 40
0.0
  9
$USERR2
 40
0.0
  9
$USERR3
 40
0.0
  9
$USERR4
 40
0.0
  9
$USERR5
 40
0.0
  9
$WORLDVIEW
 70
     1
  9
$SHADEDGE
 70
     3
  9
$SHADEDIF
 70
    70
  9
$TILEMODE
 70
     1
  9
$MAXACTVP
 70
    64
  9
$PINSBASE
 10
0.0
 20
0.0
 30
0.0
  9
$PLIMCHECK
 70
     0
  9
$PEXTMIN
 10
1.000000000000000E+20
 20
1.000000000000000E+20
 30
1.000000000000000E+20
  9
$PEXTMAX
 10
-1.000000000000000E+20
 20
-1.000000000000000E+20
 30
-1.000000000000000E+20
  9
$PLIMMIN
 10
0.0
 20
0.0
  9
$PLIMMAX
 10
12.0
 20
9.0
  9
$UNITMODE
 70
     0
  9
$VISRETAIN
 70
     1
  9
$PLINEGEN
 70
     0
  9
$PSLTSCALE
 70
     1
  9
$TREEDEPTH
 70
  3020
  9
$CMLSTYLE
  2
Standard
  9
$CMLJUST
 70
     0
  9
$CMLSCALE
 40
1.0
  9
$PROXYGRAPHICS
 70
     1
  9
$MEASUREMENT
 70
     0
  9
$CELWEIGHT
370
    -1
  9
$ENDCAPS
280
     0
  9
$JOINSTYLE
280
     0
  9
$LWDISPLAY
290
     0
  9
$INSUNITS
 70
     4
  9
$HYPERLINKBASE
  1

  9
$STYLESHEET
  1

  9
$XEDIT
290
     1
  9
$CEPSNTYPE
380
     0
  9
$PSTYLEMODE
290
     1
  9
$FINGERPRINTGUID
  2
{7FFCF23B-3070-40C3-A1AE-C41B4A06D5A1}
  9
$VERSIONGUID
  2
{FAEB1C32-E019-11D5-929B-00C0DF256EC4}
  9
$EXTNAMES
290
     1
  9
$PSVPSCALE
 40
0.0
  9
$OLESTARTUP
290
     0
  9
$SORTENTS
280
   127
  9
$INDEXCTL
280
     0
  9
$HIDETEXT
280
     1
  9
$XCLIPFRAME
290
     0
  9
$HALOGAP
280
     0
  9
$OBSCOLOR
 70
   257
  9
$OBSLTYPE
280
     0
  9
$INTERSECTIONDISPLAY
280
     0
  9
$INTERSECTIONCOLOR
 70
   257
  9
$DIMASSOC
280
     2
  9
$PROJECTNAME
  1

  0
ENDSEC
  0
SECTION
  2
CLASSES
  0
CLASS
  1
ACDBDICTIONARYWDFLT
  2
AcDbDictionaryWithDefault
  3
ObjectDBX Classes
 90
        0
 91
        3
280
     0
281
     0
  0
CLASS
  1
VISUALSTYLE
  2
AcDbVisualStyle
  3
ObjectDBX Classes
 90
     4095
 91
        3
280
     0
281
     0
  0
CLASS
  1
SCALE
  2
AcDbScale
  3
ObjectDBX Classes
 90
     1153
 91
        3
280
     0
281
     0
  0
ENDSEC
  0
SECTION
  2
TABLES
  0
TABLE
  2
VPORT
  5
8
330
0
100
AcDbSymbolTable
 70
     1
  0
VPORT
  5
29
330
8
100
AcDbSymbolTableRecord
100
AcDbViewportTableRecord
  2
*Active
 70
     0
 10
0.0
 20
0.0
 11
1.0
 21
1.0
 12
10.42990654205607
 22
4.5
 13
0.0
 23
0.0
 14
0.5
 24
0.5
 15
0.5
 25
0.5
 16
0.0
 26
0.0
 36
1.0
 17
0.0
 27
0.0
 37
0.0
 40
9.0
 41
1.972972972850329
 42
50.0
 43
0.0
 44
0.0
 50
0.0
 51
0.0
 71
     0
 72
   100
 73
     1
 74
     3
 75
     0
 76
     0
 77
     0
 78
     0
281
     0
 65
     1
110
0.0
120
0.0
130
0.0
111
1.0
121
0.0
131
0.0
112
0.0
122
1.0
132
0.0
 79
     0
146
0.0
  0
ENDTAB
  0
TABLE
  2
LTYPE
  5
5
330
0
100
AcDbSymbolTable
 70
     1
  0
LTYPE
  5
14
330
5
100
AcDbSymbolTableRecord
100
AcDbLinetypeTableRecord
  2
ByBlock
 70
     0
  3

 72
    65
 73
     0
 40
0.0
  0
LTYPE
  5
15
330
5
100
AcDbSymbolTableRecord
100
AcDbLinetypeTableRecord
  2
ByLayer
 70
     0
  3

 72
    65
 73
     0
 40
0.0
  0
LTYPE
  5
16
330
5
100
AcDbSymbolTableRecord
100
AcDbLinetypeTableRecord
  2
Continuous
 70
     0
  3
Solid line
 72
    65
 73
     0
 40
0.0
  0
ENDTAB
  0
TABLE
  2
LAYER
  5
2
330
0
100
AcDbSymbolTable
 70
     3
  0
LAYER
  5
10
330
2
100
AcDbSymbolTableRecord
100
AcDbLayerTableRecord
  2
0
 70
     0
 62
     7
  6
Continuous
370
    -3
390
F
  0
LAYER
  5
5E
330
2
100
AcDbSymbolTableRecord
100
AcDbLayerTableRecord
  2
layer 1
 70
     0
 62
     7
  6
Continuous
370
    -3
390
F
  0
LAYER
  5
63
330
2
100
AcDbSymbolTableRecord
100
AcDbLayerTableRecord
  2
DEFPOINTS
 70
     0
 62
     7
  6
Continuous
290
     0
370
    -3
390
F
  0
ENDTAB
  0
TABLE
  2
STYLE
  5
3
330
0
100
AcDbSymbolTable
 70
     7
  0
STYLE
  5
11
330
3
100
AcDbSymbolTableRecord
100
AcDbTextStyleTableRecord
  2
Standard
 70
     0
 40
0.0
 41
1.0
 50
0.0
 71
     0
 42
0.2
  3
txt
  4

  0
STYLE
  5
64
330
3
100
AcDbSymbolTableRecord
100
AcDbTextStyleTableRecord
  2
0
 70
     0
 40
1.0
 41
1.0
 50
0.0
 71
     0
 42
1.0
  3
Times New Roman
  4

1001
ACAD
1000
Times New Roman
1071
       18
  0
STYLE
  5
66
330
3
100
AcDbSymbolTableRecord
100
AcDbTextStyleTableRecord
  2
1
 70
     0
 40
1.0
 41
1.0
 50
0.0
 71
     0
 42
1.0
  3
Times New Roman
  4

1001
ACAD
1000
Times New Roman
1071
       18
  0
STYLE
  5
68
330
3
100
AcDbSymbolTableRecord
100
AcDbTextStyleTableRecord
  2
2
 70
     0
 40
1.0
 41
1.0
 50
0.0
 71
     0
 42
1.0
  3
Times New Roman
  4

1001
ACAD
1000
Times New Roman
1071
       18
  0
STYLE
  5
6C
330
3
100
AcDbSymbolTableRecord
100
AcDbTextStyleTableRecord
  2
3
 70
     0
 40
1.0
 41
1.0
 50
0.0
 71
     0
 42
1.0
  3
Times New Roman
  4

1001
ACAD
1000
Times New Roman
1071
       18
  0
STYLE
  5
6F
330
3
100
AcDbSymbolTableRecord
100
AcDbTextStyleTableRecord
  2
4
 70
     0
 40
1.0
 41
1.0
 50
0.0
 71
     0
 42
1.0
  3
Arial
  4

1001
ACAD
1000
Arial
1071
       34
  0
STYLE
  5
72
330
3
100
AcDbSymbolTableRecord
100
AcDbTextStyleTableRecord
  2
5
 70
     0
 40
1.0
 41
1.0
 50
0.0
 71
     0
 42
1.0
  3
txt.shx
  4

1001
ACAD
1000
txt.shx
1071
    34306
  0
ENDTAB
  0
TABLE
  2
VIEW
  5
6
330
0
100
AcDbSymbolTable
 70
     0
  0
ENDTAB
  0
TABLE
  2
UCS
  5
7
330
0
100
AcDbSymbolTable
 70
     0
  0
ENDTAB
  0
TABLE
  2
APPID
  5
9
330
0
100
AcDbSymbolTable
 70
     2
  0
APPID
  5
12
330
9
100
AcDbSymbolTableRecord
100
AcDbRegAppTableRecord
  2
ACAD
 70
     0
  0
APPID
  5
5D
330
9
100
AcDbSymbolTableRecord
100
AcDbRegAppTableRecord
  2
ODA
 70
     0
  0
ENDTAB
  0
TABLE
  2
DIMSTYLE
  5
A
330
0
100
AcDbSymbolTable
 70
     1
100
AcDbDimStyleTable
  0
DIMSTYLE
105
27
330
A
100
AcDbSymbolTableRecord
100
AcDbDimStyleTableRecord
  2
Standard
 70
     0
340
11
  0
ENDTAB
  0
TABLE
  2
BLOCK_RECORD
  5
1
330
0
100
AcDbSymbolTable
 70
     1
  0
BLOCK_RECORD
  5
1F
330
1
100
AcDbSymbolTableRecord
100
AcDbBlockTableRecord
  2
*Model_Space
340
22
  0
BLOCK_RECORD
  5
1B
330
1
100
AcDbSymbolTableRecord
100
AcDbBlockTableRecord
  2
*Paper_Space
340
1E
  0
BLOCK_RECORD
  5
23
330
1
100
AcDbSymbolTableRecord
100
AcDbBlockTableRecord
  2
*Paper_Space0
340
26
  0
ENDTAB
  0
ENDSEC
  0
SECTION
  2
BLOCKS
  0
BLOCK
  5
20
330
1F
100
AcDbEntity
  8
0
100
AcDbBlockBegin
  2
*Model_Space
 70
     0
 10
0.0
 20
0.0
 30
0.0
  3
*Model_Space
  1

  0
ENDBLK
  5
21
330
1F
100
AcDbEntity
  8
0
100
AcDbBlockEnd
  0
BLOCK
  5
1C
330
1B
100
AcDbEntity
 67
     1
  8
0
100
AcDbBlockBegin
  2
*Paper_Space
 70
     0
 10
0.0
 20
0.0
 30
0.0
  3
*Paper_Space
  1

  0
ENDBLK
  5
1D
330
1B
100
AcDbEntity
 67
     1
  8
0
100
AcDbBlockEnd
  0
BLOCK
  5
24
330
23
100
AcDbEntity
  8
0
100
AcDbBlockBegin
  2
*Paper_Space0
 70
     0
 10
0.0
 20
0.0
 30
0.0
  3
*Paper_Space0
  1

  0
ENDBLK
  5
25
330
23
100
AcDbEntity
  8
0
100
AcDbBlockEnd
  0
ENDSEC
  0
SECTION
  2
ENTITIES
  0
SPLINE
  5
5F
330
1F
100
AcDbEntity
  8
layer 1
 62
   250
370
    20
100
AcDbSpline
210
0.0
220
0.0
230
1.0
 70
    11
 71
     3
 72
    16
 73
    12
 74
     0
 42
0.0000000001
 43
0.0000000001
 40
0.0
 40
0.0
 40
0.0
 40
0.0
 40
0.3333333333333333
 40
0.3333333333333333
 40
0.3333333333333333
 40
0.3333333333333333
 40
0.6666666666666666
 40
0.6666666666666666
 40
0.6666666666666666
 40
0.6666666666666666
 40
1.0
 40
1.0
 40
1.0
 40
1.0
 10
488.5824
 20
83.5702
 30
0.0
 10
488.5824
 20
83.5702
 30
0.0
 10
488.5829
 20
81.6357
 30
0.0
 10
488.5829
 20
81.6357
 30
0.0
 10
488.5829
 20
81.6357
 30
0.0
 10
488.9496
 20
82.0694
 30
0.0
 10
489.4165
 20
82.2697
 30
0.0
 10
489.9835
 20
82.2365
 30
0.0
 10
489.9835
 20
82.2365
 30
0.0
 10
489.9835
 20
82.2365
 30
0.0
 10
488.5824
 20
83.5702
 30
0.0
 10
488.5824
 20
83.5702
 30
0.0
  0
SPLINE
  5
60
330
1F
100
AcDbEntity
  8
layer 1
 62
   250
370
    20
100
AcDbSpline
210
0.0
220
0.0
230
1.0
 70
    24
 71
     3
 72
     8
 73
     4
 74
     0
 42
0.0000000001
 43
0.0000000001
 40
0.0
 40
0.0
 40
0.0
 40
0.0
 40
1.0
 40
1.0
 40
1.0
 40
1.0
 10
491.2636
 20
77.3188
 30
0.0
 10
491.2636
 20
77.3188
 30
0.0
 10
488.5824
 20
83.5702
 30
0.0
 10
488.5824
 20
83.5702
 30
0.0
  0
SPLINE
  5
61
330
1F
100
AcDbEntity
  8
layer 1
 62
   250
370
    20
100
AcDbSpline
210
0.0
220
0.0
230
1.0
 70
    11
 71
     3
 72
    16
 73
    12
 74
     0
 42
0.0000000001
 43
0.0000000001
 40
0.0
 40
0.0
 40
0.0
 40
0.0
 40
0.3333333333333333
 40
0.3333333333333333
 40
0.3333333333333333
 40
0.3333333333333333
 40
0.6666666666666666
 40
0.6666666666666666
 40
0.6666666666666666
 40
0.6666666666666666
 40
1.0
 40
1.0
 40
1.0
 40
1.0
 10
518.6269
 20
84.0225
 30
0.0
 10
518.6269
 20
84.0225
 30
0.0
 10
518.6274
 20
82.088
 30
0.0
 10
518.6274
 20
82.088
 30
0.0
 10
518.6274
 20
82.088
 30
0.0
 10
518.9941
 20
82.5217
 30
0.0
 10
519.461
 20
82.722
 30
0.0
 10
520.028
 20
82.6888
 30
0.0
 10
520.028
 20
82.6888
 30
0.0
 10
520.028
 20
82.6888
 30
0.0
 10
518.6269
 20
84.0225
 30
0.0
 10
518.6269
 20
84.0225
 30
0.0
  0
SPLINE
  5
62
330
1F
100
AcDbEntity
  8
layer 1
 62
   250
370
    20
100
AcDbSpline
210
0.0
220
0.0
230
1.0
 70
    24
 71
     3
 72
     8
 73
     4
 74
     0
 42
0.0000000001
 43
0.0000000001
 40
0.0
 40
0.0
 40
0.0
 40
0.0
 40
1.0
 40
1.0
 40
1.0
 40
1.0
 10
521.5386
 20
77.2338
 30
0.0
 10
521.5386
 20
77.2338
 30
0.0
 10
518.6269
 20
84.0225
 30
0.0
 10
518.6269
 20
84.0225
 30
0.0
  0
TEXT
  5
65
330
1F
100
AcDbEntity
  8
DEFPOINTS
100
AcDbText
 10
448.6624
 20
75.7154
 30
0.0
 40
1.272312
  1
Please use inner line for negative reveal 1/8"
 50
-0.1353626073397464
 51
0.0891207240795327
  7
0
100
AcDbText
  0
TEXT
  5
67
330
1F
100
AcDbEntity
  8
DEFPOINTS
100
AcDbText
 10
485.2927995941162
 20
75.9334
 30
0.0
 40
1.38132
  1
Please use middle line for flushed reveal
 50
0.0634317206224631
 51
0.0188551413741295
  7
1
100
AcDbText
  0
TEXT
  5
69
330
1F
100
AcDbEntity
  8
DEFPOINTS
100
AcDbText
 10
516.234799625659
 20
75.8506
 30
0.0
 40
1.270296
  1
Please use outer line for positive reveal 1/8"
 50
0.0895205225997728
 51
-0.5520683630359415
  7
2
100
AcDbText
  0
SPLINE
  5
6A
330
1F
100
AcDbEntity
  8
DEFPOINTS
 62
   250
370
    20
100
AcDbSpline
210
0.0
220
0.0
230
1.0
 70
    11
 71
     3
 72
    16
 73
    12
 74
     0
 42
0.0000000001
 43
0.0000000001
 40
0.0
 40
0.0
 40
0.0
 40
0.0
 40
0.3333333333333333
 40
0.3333333333333333
 40
0.3333333333333333
 40
0.3333333333333333
 40
0.6666666666666666
 40
0.6666666666666666
 40
0.6666666666666666
 40
0.6666666666666666
 40
1.0
 40
1.0
 40
1.0
 40
1.0
 10
452.0917
 20
83.1786
 30
0.0
 10
452.0917
 20
83.1786
 30
0.0
 10
452.0922
 20
81.2441
 30
0.0
 10
452.0922
 20
81.2441
 30
0.0
 10
452.0922
 20
81.2441
 30
0.0
 10
452.459
 20
81.6778
 30
0.0
 10
452.9258
 20
81.8781
 30
0.0
 10
453.4928
 20
81.8449
 30
0.0
 10
453.4928
 20
81.8449
 30
0.0
 10
453.4928
 20
81.8449
 30
0.0
 10
452.0917
 20
83.1786
 30
0.0
 10
452.0917
 20
83.1786
 30
0.0
  0
SPLINE
  5
6B
330
1F
100
AcDbEntity
  8
DEFPOINTS
 62
   250
370
    20
100
AcDbSpline
210
0.0
220
0.0
230
1.0
 70
    24
 71
     3
 72
     8
 73
     4
 74
     0
 42
0.0000000001
 43
0.0000000001
 40
0.0
 40
0.0
 40
0.0
 40
0.0
 40
1.0
 40
1.0
 40
1.0
 40
1.0
 10
454.5321
 20
77.489
 30
0.0
 10
454.5321
 20
77.489
 30
0.0
 10
452.0917
 20
83.1786
 30
0.0
 10
452.0917
 20
83.1786
 30
0.0
  0
TEXT
  5
6D
330
1F
100
AcDbEntity
  8
DEFPOINTS
 62
   250
100
AcDbText
 10
451.7965
 20
20.5884
 30
0.0
 40
2.617128
  1
Please check actual template against physical sink unit for 
 51
-0.0000015352345087
  7
3
100
AcDbText
  0
TEXT
  5
6E
330
1F
100
AcDbEntity
  8
DEFPOINTS
 62
   250
100
AcDbText
 10
451.7965
 20
16.5627
 30
0.0
 40
2.617128
  1
most accurate cut!
 51
-0.0000015352345087
  7
0
100
AcDbText
  0
TEXT
  5
70
330
1F
100
AcDbEntity
  8
DEFPOINTS
 62
   250
100
AcDbText
 10
447.4272
 20
96.05630000000001
 30
0.0
 40
7.411535999999999
  1
FH 0010 
 51
-0.0000015352345087
  7
4
100
AcDbText
  0
TEXT
  5
71
330
1F
100
AcDbEntity
  8
DEFPOINTS
 62
   250
100
AcDbText
 10
497.2041
 20
96.05630000000001
 30
0.0
 40
7.411535999999999
  1
ASR3620BL
 51
-0.0000015352345087
  7
4
100
AcDbText
  0
TEXT
  5
73
330
1F
100
AcDbEntity
  8
DEFPOINTS
 62
   250
100
AcDbText
 10
492.0572
 20
96.05630000000001
 30
0.0
 40
7.411535999999999
  1
 
 51
-0.0000015352345087
  7
5
100
AcDbText
  0
SPLINE
  5
74
330
1F
100
AcDbEntity
  8
DEFPOINTS
370
    25
100
AcDbSpline
210
0.0
220
0.0
230
1.0
 70
    24
 71
     3
 72
     8
 73
     4
 74
     0
 42
0.0000000001
 43
0.0000000001
 40
0.0
 40
0.0
 40
0.0
 40
0.0
 40
1.0
 40
1.0
 40
1.0
 40
1.0
 10
437.7431
 20
83.5896
 30
0.0
 10
437.7431
 20
83.5896
 30
0.0
 10
439.0343
 20
83.5896
 30
0.0
 10
439.0343
 20
83.5896
 30
0.0
  0
SPLINE
  5
75
330
1F
100
AcDbEntity
  8
DEFPOINTS
370
    25
100
AcDbSpline
210
0.0
220
0.0
230
1.0
 70
    24
 71
     3
 72
     8
 73
     4
 74
     0
 42
0.0000000001
 43
0.0000000001
 40
0.0
 40
0.0
 40
0.0
 40
0.0
 40
1.0
 40
1.0
 40
1.0
 40
1.0
 10
439.5846
 20
83.5896
 30
0.0
 10
439.5846
 20
83.5896
 30
0.0
 10
440.7064
 20
83.5896
 30
0.0
 10
440.7064
 20
83.5896
 30
0.0
  0
SPLINE
  5
76
330
1F
100
AcDbEntity
  8
DEFPOINTS
370
    25
100
AcDbSpline
210
0.0
220
0.0
230
1.0
 70
    24
 71
     3
 72
     8
 73
     4
 74
     0
 42
0.0000000001
 43
0.0000000001
 40
0.0
 40
0.0
 40
0.0
 40
0.0
 40
1.0
 40
1.0
 40
1.0
 40
1.0
 10
441.2779
 20
83.5896
 30
0.0
 10
441.2779
 20
83.5896
 30
0.0
 10
442.3998
 20
83.5896
 30
0.0
 10
442.3998
 20
83.5896
 30
0.0
  0
SPLINE
  5
77
330
1F
100
AcDbEntity
  8
DEFPOINTS
370
    25
100
AcDbSpline
210
0.0
220
0.0
230
1.0
 70
    24
 71
     3
 72
     8
 73
     4
 74
     0
 42
0.0000000001
 43
0.0000000001
 40
0.0
 40
0.0
 40
0.0
 40
0.0
 40
1.0
 40
1.0
 40
1.0
 40
1.0
 10
442.9501
 20
83.5896
 30
0.0
 10
442.9501
 20
83.5896
 30
0.0
 10
444.0931
 20
83.5896
 30
0.0
 10
444.0931
 20
83.5896
 30
0.0
  0
SPLINE
  5
78
330
1F
100
AcDbEntity
  8
DEFPOINTS
370
    25
100
AcDbSpline
210
0.0
220
0.0
230
1.0
 70
    24
 71
     3
 72
     8
 73
     4
 74
     0
 42
0.0000000001
 43
0.0000000001
 40
0.0
 40
0.0
 40
0.0
 40
0.0
 40
1.0
 40
1.0
 40
1.0
 40
1.0
 10
444.6434
 20
83.5896
 30
0.0
 10
444.6434
 20
83.5896
 30
0.0
 10
445.7653
 20
83.5896
 30
0.0
 10
445.7653
 20
83.5896
 30
0.0
  0
SPLINE
  5
79
330
1F
100
AcDbEntity
  8
DEFPOINTS
370
    25
100
AcDbSpline
210
0.0
220
0.0
230
1.0
 70
    24
 71
     3
 72
     8
 73
     4
 74
     0
 42
0.0000000001
 43
0.0000000001
 40
0.0
 40
0.0
 40
0.0
 40
0.0
 40
1.0
 40
1.0
 40
1.0
 40
1.0
 10
446.3368
 20
83.5896
 30
0.0
 10
446.3368
 20
83.5896
 30
0.0
 10
447.4586
 20
83.5896
 30
0.0
 10
447.4586
 20
83.5896
 30
0.0
  0
SPLINE
  5
7A
330
1F
100
AcDbEntity
  8
DEFPOINTS
370
    25
100
AcDbSpline
210
0.0
220
0.0
230
1.0
 70
    24
 71
     3
 72
     8
 73
     4
 74
     0
 42
0.0000000001
 43
0.0000000001
 40
0.0
 40
0.0
 40
0.0
 40
0.0
 40
1.0
 40
1.0
 40
1.0
 40
1.0
 10
448.0089
 20
83.5896
 30
0.0
 10
448.0089
 20
83.5896
 30
0.0
 10
449.1308
 20
83.5896
 30
0.0
 10
449.1308
 20
83.5896
 30
0.0
  0
SPLINE
  5
7B
330
1F
100
AcDbEntity
  8
DEFPOINTS
370
    25
100
AcDbSpline
210
0.0
220
0.0
230
1.0
 70
    24
 71
     3
 72
     8
 73
     4
 74
     0
 42
0.0000000001
 43
0.0000000001
 40
0.0
 40
0.0
 40
0.0
 40
0.0
 40
1.0
 40
1.0
 40
1.0
 40
1.0
 10
449.7023
 20
83.5896
 30
0.0
 10
449.7023
 20
83.5896
 30
0.0
 10
450.8241
 20
83.5896
 30
0.0
 10
450.8241
 20
83.5896
 30
0.0
  0
SPLINE
  5
7C
330
1F
100
AcDbEntity
  8
DEFPOINTS
370
    25
100
AcDbSpline
210
0.0
220
0.0
230
1.0
 70
    24
 71
     3
 72
     8
 73
     4
 74
     0
 42
0.0000000001
 43
0.0000000001
 40
0.0
 40
0.0
 40
0.0
 40
0.0
 40
1.0
 40
1.0
 40
1.0
 40
1.0
 10
451.3744
 20
83.5896
 30
0.0
 10
451.3744
 20
83.5896
 30
0.0
 10
452.4963
 20
83.5896
 30
0.0
 10
452.4963
 20
83.5896
 30
0.0
  0
SPLINE
  5
7D
330
1F
100
AcDbEntity
  8
DEFPOINTS
370
    25
100
AcDbSpline
210
0.0
220
0.0
230
1.0
 70
    24
 71
     3
 72
     8
 73
     4
 74
     0
 42
0.0000000001
 43
0.0000000001
 40
0.0
 40
0.0
 40
0.0
 40
0.0
 40
1.0
 40
1.0
 40
1.0
 40
1.0
 10
453.0678
 20
83.5896
 30
0.0
 10
453.0678
 20
83.5896
 30
0.0
 10
454.1896
 20
83.5896
 30
0.0
 10
454.1896
 20
83.5896
 30
0.0
  0
SPLINE
  5
7E
330
1F
100
AcDbEntity
  8
DEFPOINTS
370
    25
100
AcDbSpline
210
0.0
220
0.0
230
1.0
 70
    24
 71
     3
 72
     8
 73
     4
 74
     0
 42
0.0000000001
 43
0.0000000001
 40
0.0
 40
0.0
 40
0.0
 40
0.0
 40
1.0
 40
1.0
 40
1.0
 40
1.0
 10
454.7399
 20
83.5896
 30
0.0
 10
454.7399
 20
83.5896
 30
0.0
 10
455.8618
 20
83.5896
 30
0.0
 10
455.8618
 20
83.5896
 30
0.0
  0
SPLINE
  5
7F
330
1F
100
AcDbEntity
  8
DEFPOINTS
370
    25
100
AcDbSpline
210
0.0
220
0.0
230
1.0
 70
    24
 71
     3
 72
     8
 73
     4
 74
     0
 42
0.0000000001
 43
0.0000000001
 40
0.0
 40
0.0
 40
0.0
 40
0.0
 40
1.0
 40
1.0
 40
1.0
 40
1.0
 10
456.4333
 20
83.5896
 30
0.0
 10
456.4333
 20
83.5896
 30
0.0
 10
457.5551
 20
83.5896
 30
0.0
 10
457.5551
 20
83.5896
 30
0.0
  0
SPLINE
  5
80
330
1F
100
AcDbEntity
  8
DEFPOINTS
370
    25
100
AcDbSpline
210
0.0
220
0.0
230
1.0
 70
    24
 71
     3
 72
     8
 73
     4
 74
     0
 42
0.0000000001
 43
0.0000000001
 40
0.0
 40
0.0
 40
0.0
 40
0.0
 40
1.0
 40
1.0
 40
1.0
 40
1.0
 10
458.1054
 20
83.5896
 30
0.0
 10
458.1054
 20
83.5896
 30
0.0
 10
459.2273
 20
83.5896
 30
0.0
 10
459.2273
 20
83.5896
 30
0.0
  0
SPLINE
  5
81
330
1F
100
AcDbEntity
  8
DEFPOINTS
370
    25
100
AcDbSpline
210
0.0
220
0.0
230
1.0
 70
    24
 71
     3
 72
     8
 73
     4
 74
     0
 42
0.0000000001
 43
0.0000000001
 40
0.0
 40
0.0
 40
0.0
 40
0.0
 40
1.0
 40
1.0
 40
1.0
 40
1.0
 10
459.7988
 20
83.5896
 30
0.0
 10
459.7988
 20
83.5896
 30
0.0
 10
460.9206
 20
83.5896
 30
0.0
 10
460.9206
 20
83.5896
 30
0.0
  0
SPLINE
  5
82
330
1F
100
AcDbEntity
  8
DEFPOINTS
370
    25
100
AcDbSpline
210
0.0
220
0.0
230
1.0
 70
    24
 71
     3
 72
     8
 73
     4
 74
     0
 42
0.0000000001
 43
0.0000000001
 40
0.0
 40
0.0
 40
0.0
 40
0.0
 40
1.0
 40
1.0
 40
1.0
 40
1.0
 10
461.4709
 20
83.5896
 30
0.0
 10
461.4709
 20
83.5896
 30
0.0
 10
462.5928
 20
83.5896
 30
0.0
 10
462.5928
 20
83.5896
 30
0.0
  0
SPLINE
  5
83
330
1F
100
AcDbEntity
  8
DEFPOINTS
370
    25
100
AcDbSpline
210
0.0
220
0.0
230
1.0
 70
    24
 71
     3
 72
     8
 73
     4
 74
     0
 42
0.0000000001
 43
0.0000000001
 40
0.0
 40
0.0
 40
0.0
 40
0.0
 40
1.0
 40
1.0
 40
1.0
 40
1.0
 10
463.1643
 20
83.5896
 30
0.0
 10
463.1643
 20
83.5896
 30
0.0
 10
464.2861
 20
83.5896
 30
0.0
 10
464.2861
 20
83.5896
 30
0.0
  0
SPLINE
  5
84
330
1F
100
AcDbEntity
  8
DEFPOINTS
370
    25
100
AcDbSpline
210
0.0
220
0.0
230
1.0
 70
    24
 71
     3
 72
     8
 73
     4
 74
     0
 42
0.0000000001
 43
0.0000000001
 40
0.0
 40
0.0
 40
0.0
 40
0.0
 40
1.0
 40
1.0
 40
1.0
 40
1.0
 10
464.8364
 20
83.5896
 30
0.0
 10
464.8364
 20
83.5896
 30
0.0
 10
465.9583
 20
83.5896
 30
0.0
 10
465.9583
 20
83.5896
 30
0.0
  0
SPLINE
  5
85
330
1F
100
AcDbEntity
  8
DEFPOINTS
370
    25
100
AcDbSpline
210
0.0
220
0.0
230
1.0
 70
    24
 71
     3
 72
     8
 73
     4
 74
     0
 42
0.0000000001
 43
0.0000000001
 40
0.0
 40
0.0
 40
0.0
 40
0.0
 40
1.0
 40
1.0
 40
1.0
 40
1.0
 10
466.5298
 20
83.5896
 30
0.0
 10
466.5298
 20
83.5896
 30
0.0
 10
467.6516
 20
83.5896
 30
0.0
 10
467.6516
 20
83.5896
 30
0.0
  0
SPLINE
  5
86
330
1F
100
AcDbEntity
  8
DEFPOINTS
370
    25
100
AcDbSpline
210
0.0
220
0.0
230
1.0
 70
    24
 71
     3
 72
     8
 73
     4
 74
     0
 42
0.0000000001
 43
0.0000000001
 40
0.0
 40
0.0
 40
0.0
 40
0.0
 40
1.0
 40
1.0
 40
1.0
 40
1.0
 10
468.2019
 20
83.5896
 30
0.0
 10
468.2019
 20
83.5896
 30
0.0
 10
469.3238
 20
83.5896
 30
0.0
 10
469.3238
 20
83.5896
 30
0.0
  0
SPLINE
  5
87
330
1F
100
AcDbEntity
  8
DEFPOINTS
370
    25
100
AcDbSpline
210
0.0
220
0.0
230
1.0
 70
    24
 71
     3
 72
     8
 73
     4
 74
     0
 42
0.0000000001
 43
0.0000000001
 40
0.0
 40
0.0
 40
0.0
 40
0.0
 40
1.0
 40
1.0
 40
1.0
 40
1.0
 10
469.8953
 20
83.5896
 30
0.0
 10
469.8953
 20
83.5896
 30
0.0
 10
471.0171
 20
83.5896
 30
0.0
 10
471.0171
 20
83.5896
 30
0.0
  0
SPLINE
  5
88
330
1F
100
AcDbEntity
  8
DEFPOINTS
370
    25
100
AcDbSpline
210
0.0
220
0.0
230
1.0
 70
    24
 71
     3
 72
     8
 73
     4
 74
     0
 42
0.0000000001
 43
0.0000000001
 40
0.0
 40
0.0
 40
0.0
 40
0.0
 40
1.0
 40
1.0
 40
1.0
 40
1.0
 10
471.5886
 20
83.5896
 30
0.0
 10
471.5886
 20
83.5896
 30
0.0
 10
472.7104
 20
83.5896
 30
0.0
 10
472.7104
 20
83.5896
 30
0.0
  0
SPLINE
  5
89
330
1F
100
AcDbEntity
  8
DEFPOINTS
370
    25
100
AcDbSpline
210
0.0
220
0.0
230
1.0
 70
    24
 71
     3
 72
     8
 73
     4
 74
     0
 42
0.0000000001
 43
0.0000000001
 40
0.0
 40
0.0
 40
0.0
 40
0.0
 40
1.0
 40
1.0
 40
1.0
 40
1.0
 10
473.2608
 20
83.5896
 30
0.0
 10
473.2608
 20
83.5896
 30
0.0
 10
474.3826
 20
83.5896
 30
0.0
 10
474.3826
 20
83.5896
 30
0.0
  0
SPLINE
  5
8A
330
1F
100
AcDbEntity
  8
DEFPOINTS
370
    25
100
AcDbSpline
210
0.0
220
0.0
230
1.0
 70
    24
 71
     3
 72
     8
 73
     4
 74
     0
 42
0.0000000001
 43
0.0000000001
 40
0.0
 40
0.0
 40
0.0
 40
0.0
 40
1.0
 40
1.0
 40
1.0
 40
1.0
 10
474.9541
 20
83.5896
 30
0.0
 10
474.9541
 20
83.5896
 30
0.0
 10
476.0759
 20
83.5896
 30
0.0
 10
476.0759
 20
83.5896
 30
0.0
  0
SPLINE
  5
8B
330
1F
100
AcDbEntity
  8
DEFPOINTS
370
    25
100
AcDbSpline
210
0.0
220
0.0
230
1.0
 70
    24
 71
     3
 72
     8
 73
     4
 74
     0
 42
0.0000000001
 43
0.0000000001
 40
0.0
 40
0.0
 40
0.0
 40
0.0
 40
1.0
 40
1.0
 40
1.0
 40
1.0
 10
476.6263
 20
83.5896
 30
0.0
 10
476.6263
 20
83.5896
 30
0.0
 10
477.7481
 20
83.5896
 30
0.0
 10
477.7481
 20
83.5896
 30
0.0
  0
SPLINE
  5
8C
330
1F
100
AcDbEntity
  8
DEFPOINTS
370
    25
100
AcDbSpline
210
0.0
220
0.0
230
1.0
 70
    24
 71
     3
 72
     8
 73
     4
 74
     0
 42
0.0000000001
 43
0.0000000001
 40
0.0
 40
0.0
 40
0.0
 40
0.0
 40
1.0
 40
1.0
 40
1.0
 40
1.0
 10
478.3196
 20
83.5896
 30
0.0
 10
478.3196
 20
83.5896
 30
0.0
 10
479.4414
 20
83.5896
 30
0.0
 10
479.4414
 20
83.5896
 30
0.0
  0
SPLINE
  5
8D
330
1F
100
AcDbEntity
  8
DEFPOINTS
370
    25
100
AcDbSpline
210
0.0
220
0.0
230
1.0
 70
    24
 71
     3
 72
     8
 73
     4
 74
     0
 42
0.0000000001
 43
0.0000000001
 40
0.0
 40
0.0
 40
0.0
 40
0.0
 40
1.0
 40
1.0
 40
1.0
 40
1.0
 10
479.9918
 20
83.5896
 30
0.0
 10
479.9918
 20
83.5896
 30
0.0
 10
481.1136
 20
83.5896
 30
0.0
 10
481.1136
 20
83.5896
 30
0.0
  0
SPLINE
  5
8E
330
1F
100
AcDbEntity
  8
DEFPOINTS
370
    25
100
AcDbSpline
210
0.0
220
0.0
230
1.0
 70
    24
 71
     3
 72
     8
 73
     4
 74
     0
 42
0.0000000001
 43
0.0000000001
 40
0.0
 40
0.0
 40
0.0
 40
0.0
 40
1.0
 40
1.0
 40
1.0
 40
1.0
 10
481.6851
 20
83.5896
 30
0.0
 10
481.6851
 20
83.5896
 30
0.0
 10
482.8069
 20
83.5896
 30
0.0
 10
482.8069
 20
83.5896
 30
0.0
  0
SPLINE
  5
8F
330
1F
100
AcDbEntity
  8
DEFPOINTS
370
    25
100
AcDbSpline
210
0.0
220
0.0
230
1.0
 70
    24
 71
     3
 72
     8
 73
     4
 74
     0
 42
0.0000000001
 43
0.0000000001
 40
0.0
 40
0.0
 40
0.0
 40
0.0
 40
1.0
 40
1.0
 40
1.0
 40
1.0
 10
483.3573
 20
83.5896
 30
0.0
 10
483.3573
 20
83.5896
 30
0.0
 10
484.4791
 20
83.5896
 30
0.0
 10
484.4791
 20
83.5896
 30
0.0
  0
SPLINE
  5
90
330
1F
100
AcDbEntity
  8
DEFPOINTS
370
    25
100
AcDbSpline
210
0.0
220
0.0
230
1.0
 70
    24
 71
     3
 72
     8
 73
     4
 74
     0
 42
0.0000000001
 43
0.0000000001
 40
0.0
 40
0.0
 40
0.0
 40
0.0
 40
1.0
 40
1.0
 40
1.0
 40
1.0
 10
485.0506
 20
83.5896
 30
0.0
 10
485.0506
 20
83.5896
 30
0.0
 10
486.1724
 20
83.5896
 30
0.0
 10
486.1724
 20
83.5896
 30
0.0
  0
SPLINE
  5
91
330
1F
100
AcDbEntity
  8
DEFPOINTS
370
    25
100
AcDbSpline
210
0.0
220
0.0
230
1.0
 70
    24
 71
     3
 72
     8
 73
     4
 74
     0
 42
0.0000000001
 43
0.0000000001
 40
0.0
 40
0.0
 40
0.0
 40
0.0
 40
1.0
 40
1.0
 40
1.0
 40
1.0
 10
486.7228
 20
83.5896
 30
0.0
 10
486.7228
 20
83.5896
 30
0.0
 10
487.8446
 20
83.5896
 30
0.0
 10
487.8446
 20
83.5896
 30
0.0
  0
SPLINE
  5
92
330
1F
100
AcDbEntity
  8
DEFPOINTS
370
    25
100
AcDbSpline
210
0.0
220
0.0
230
1.0
 70
    24
 71
     3
 72
     8
 73
     4
 74
     0
 42
0.0000000001
 43
0.0000000001
 40
0.0
 40
0.0
 40
0.0
 40
0.0
 40
1.0
 40
1.0
 40
1.0
 40
1.0
 10
488.4161
 20
83.5896
 30
0.0
 10
488.4161
 20
83.5896
 30
0.0
 10
489.5379
 20
83.5896
 30
0.0
 10
489.5379
 20
83.5896
 30
0.0
  0
SPLINE
  5
93
330
1F
100
AcDbEntity
  8
DEFPOINTS
370
    25
100
AcDbSpline
210
0.0
220
0.0
230
1.0
 70
    24
 71
     3
 72
     8
 73
     4
 74
     0
 42
0.0000000001
 43
0.0000000001
 40
0.0
 40
0.0
 40
0.0
 40
0.0
 40
1.0
 40
1.0
 40
1.0
 40
1.0
 10
490.0883
 20
83.5896
 30
0.0
 10
490.0883
 20
83.5896
 30
0.0
 10
491.2101
 20
83.5896
 30
0.0
 10
491.2101
 20
83.5896
 30
0.0
  0
SPLINE
  5
94
330
1F
100
AcDbEntity
  8
DEFPOINTS
370
    25
100
AcDbSpline
210
0.0
220
0.0
230
1.0
 70
    24
 71
     3
 72
     8
 73
     4
 74
     0
 42
0.0000000001
 43
0.0000000001
 40
0.0
 40
0.0
 40
0.0
 40
0.0
 40
1.0
 40
1.0
 40
1.0
 40
1.0
 10
491.7816
 20
83.5896
 30
0.0
 10
491.7816
 20
83.5896
 30
0.0
 10
492.9034
 20
83.5896
 30
0.0
 10
492.9034
 20
83.5896
 30
0.0
  0
SPLINE
  5
95
330
1F
100
AcDbEntity
  8
DEFPOINTS
370
    25
100
AcDbSpline
210
0.0
220
0.0
230
1.0
 70
    24
 71
     3
 72
     8
 73
     4
 74
     0
 42
0.0000000001
 43
0.0000000001
 40
0.0
 40
0.0
 40
0.0
 40
0.0
 40
1.0
 40
1.0
 40
1.0
 40
1.0
 10
493.4538
 20
83.5896
 30
0.0
 10
493.4538
 20
83.5896
 30
0.0
 10
494.5756
 20
83.5896
 30
0.0
 10
494.5756
 20
83.5896
 30
0.0
  0
SPLINE
  5
96
330
1F
100
AcDbEntity
  8
DEFPOINTS
370
    25
100
AcDbSpline
210
0.0
220
0.0
230
1.0
 70
    24
 71
     3
 72
     8
 73
     4
 74
     0
 42
0.0000000001
 43
0.0000000001
 40
0.0
 40
0.0
 40
0.0
 40
0.0
 40
1.0
 40
1.0
 40
1.0
 40
1.0
 10
495.1471
 20
83.5896
 30
0.0
 10
495.1471
 20
83.5896
 30
0.0
 10
496.2689
 20
83.5896
 30
0.0
 10
496.2689
 20
83.5896
 30
0.0
  0
SPLINE
  5
97
330
1F
100
AcDbEntity
  8
DEFPOINTS
370
    25
100
AcDbSpline
210
0.0
220
0.0
230
1.0
 70
    24
 71
     3
 72
     8
 73
     4
 74
     0
 42
0.0000000001
 43
0.0000000001
 40
0.0
 40
0.0
 40
0.0
 40
0.0
 40
1.0
 40
1.0
 40
1.0
 40
1.0
 10
496.8404
 20
83.5896
 30
0.0
 10
496.8404
 20
83.5896
 30
0.0
 10
497.9623
 20
83.5896
 30
0.0
 10
497.9623
 20
83.5896
 30
0.0
  0
SPLINE
  5
98
330
1F
100
AcDbEntity
  8
DEFPOINTS
370
    25
100
AcDbSpline
210
0.0
220
0.0
230
1.0
 70
    24
 71
     3
 72
     8
 73
     4
 74
     0
 42
0.0000000001
 43
0.0000000001
 40
0.0
 40
0.0
 40
0.0
 40
0.0
 40
1.0
 40
1.0
 40
1.0
 40
1.0
 10
498.5126
 20
83.5896
 30
0.0
 10
498.5126
 20
83.5896
 30
0.0
 10
499.6344
 20
83.5896
 30
0.0
 10
499.6344
 20
83.5896
 30
0.0
  0
SPLINE
  5
99
330
1F
100
AcDbEntity
  8
DEFPOINTS
370
    25
100
AcDbSpline
210
0.0
220
0.0
230
1.0
 70
    24
 71
     3
 72
     8
 73
     4
 74
     0
 42
0.0000000001
 43
0.0000000001
 40
0.0
 40
0.0
 40
0.0
 40
0.0
 40
1.0
 40
1.0
 40
1.0
 40
1.0
 10
500.2059
 20
83.5896
 30
0.0
 10
500.2059
 20
83.5896
 30
0.0
 10
501.3278
 20
83.5896
 30
0.0
 10
501.3278
 20
83.5896
 30
0.0
  0
SPLINE
  5
9A
330
1F
100
AcDbEntity
  8
DEFPOINTS
370
    25
100
AcDbSpline
210
0.0
220
0.0
230
1.0
 70
    24
 71
     3
 72
     8
 73
     4
 74
     0
 42
0.0000000001
 43
0.0000000001
 40
0.0
 40
0.0
 40
0.0
 40
0.0
 40
1.0
 40
1.0
 40
1.0
 40
1.0
 10
501.8781
 20
83.5896
 30
0.0
 10
501.8781
 20
83.5896
 30
0.0
 10
502.9999
 20
83.5896
 30
0.0
 10
502.9999
 20
83.5896
 30
0.0
  0
SPLINE
  5
9B
330
1F
100
AcDbEntity
  8
DEFPOINTS
370
    25
100
AcDbSpline
210
0.0
220
0.0
230
1.0
 70
    24
 71
     3
 72
     8
 73
     4
 74
     0
 42
0.0000000001
 43
0.0000000001
 40
0.0
 40
0.0
 40
0.0
 40
0.0
 40
1.0
 40
1.0
 40
1.0
 40
1.0
 10
503.5714
 20
83.5896
 30
0.0
 10
503.5714
 20
83.5896
 30
0.0
 10
504.6933
 20
83.5896
 30
0.0
 10
504.6933
 20
83.5896
 30
0.0
  0
SPLINE
  5
9C
330
1F
100
AcDbEntity
  8
DEFPOINTS
370
    25
100
AcDbSpline
210
0.0
220
0.0
230
1.0
 70
    24
 71
     3
 72
     8
 73
     4
 74
     0
 42
0.0000000001
 43
0.0000000001
 40
0.0
 40
0.0
 40
0.0
 40
0.0
 40
1.0
 40
1.0
 40
1.0
 40
1.0
 10
505.2436
 20
83.5896
 30
0.0
 10
505.2436
 20
83.5896
 30
0.0
 10
506.3654
 20
83.5896
 30
0.0
 10
506.3654
 20
83.5896
 30
0.0
  0
SPLINE
  5
9D
330
1F
100
AcDbEntity
  8
DEFPOINTS
370
    25
100
AcDbSpline
210
0.0
220
0.0
230
1.0
 70
    24
 71
     3
 72
     8
 73
     4
 74
     0
 42
0.0000000001
 43
0.0000000001
 40
0.0
 40
0.0
 40
0.0
 40
0.0
 40
1.0
 40
1.0
 40
1.0
 40
1.0
 10
506.9369
 20
83.5896
 30
0.0
 10
506.9369
 20
83.5896
 30
0.0
 10
508.0588
 20
83.5896
 30
0.0
 10
508.0588
 20
83.5896
 30
0.0
  0
SPLINE
  5
9E
330
1F
100
AcDbEntity
  8
DEFPOINTS
370
    25
100
AcDbSpline
210
0.0
220
0.0
230
1.0
 70
    24
 71
     3
 72
     8
 73
     4
 74
     0
 42
0.0000000001
 43
0.0000000001
 40
0.0
 40
0.0
 40
0.0
 40
0.0
 40
1.0
 40
1.0
 40
1.0
 40
1.0
 10
508.6091
 20
83.5896
 30
0.0
 10
508.6091
 20
83.5896
 30
0.0
 10
509.7309
 20
83.5896
 30
0.0
 10
509.7309
 20
83.5896
 30
0.0
  0
SPLINE
  5
9F
330
1F
100
AcDbEntity
  8
DEFPOINTS
370
    25
100
AcDbSpline
210
0.0
220
0.0
230
1.0
 70
    24
 71
     3
 72
     8
 73
     4
 74
     0
 42
0.0000000001
 43
0.0000000001
 40
0.0
 40
0.0
 40
0.0
 40
0.0
 40
1.0
 40
1.0
 40
1.0
 40
1.0
 10
510.3024
 20
83.5896
 30
0.0
 10
510.3024
 20
83.5896
 30
0.0
 10
511.4243
 20
83.5896
 30
0.0
 10
511.4243
 20
83.5896
 30
0.0
  0
SPLINE
  5
A0
330
1F
100
AcDbEntity
  8
DEFPOINTS
370
    25
100
AcDbSpline
210
0.0
220
0.0
230
1.0
 70
    24
 71
     3
 72
     8
 73
     4
 74
     0
 42
0.0000000001
 43
0.0000000001
 40
0.0
 40
0.0
 40
0.0
 40
0.0
 40
1.0
 40
1.0
 40
1.0
 40
1.0
 10
511.9746
 20
83.5896
 30
0.0
 10
511.9746
 20
83.5896
 30
0.0
 10
513.0964
 20
83.5896
 30
0.0
 10
513.0964
 20
83.5896
 30
0.0
  0
SPLINE
  5
A1
330
1F
100
AcDbEntity
  8
DEFPOINTS
370
    25
100
AcDbSpline
210
0.0
220
0.0
230
1.0
 70
    24
 71
     3
 72
     8
 73
     4
 74
     0
 42
0.0000000001
 43
0.0000000001
 40
0.0
 40
0.0
 40
0.0
 40
0.0
 40
1.0
 40
1.0
 40
1.0
 40
1.0
 10
513.6679
 20
83.5896
 30
0.0
 10
513.6679
 20
83.5896
 30
0.0
 10
514.7898
 20
83.5896
 30
0.0
 10
514.7898
 20
83.5896
 30
0.0
  0
SPLINE
  5
A2
330
1F
100
AcDbEntity
  8
DEFPOINTS
370
    25
100
AcDbSpline
210
0.0
220
0.0
230
1.0
 70
    24
 71
     3
 72
     8
 73
     4
 74
     0
 42
0.0000000001
 43
0.0000000001
 40
0.0
 40
0.0
 40
0.0
 40
0.0
 40
1.0
 40
1.0
 40
1.0
 40
1.0
 10
515.3401
 20
83.5896
 30
0.0
 10
515.3401
 20
83.5896
 30
0.0
 10
516.4619
 20
83.5896
 30
0.0
 10
516.4619
 20
83.5896
 30
0.0
  0
SPLINE
  5
A3
330
1F
100
AcDbEntity
  8
DEFPOINTS
370
    25
100
AcDbSpline
210
0.0
220
0.0
230
1.0
 70
    24
 71
     3
 72
     8
 73
     4
 74
     0
 42
0.0000000001
 43
0.0000000001
 40
0.0
 40
0.0
 40
0.0
 40
0.0
 40
1.0
 40
1.0
 40
1.0
 40
1.0
 10
517.0334
 20
83.5896
 30
0.0
 10
517.0334
 20
83.5896
 30
0.0
 10
518.1553
 20
83.5896
 30
0.0
 10
518.1553
 20
83.5896
 30
0.0
  0
SPLINE
  5
A4
330
1F
100
AcDbEntity
  8
DEFPOINTS
370
    25
100
AcDbSpline
210
0.0
220
0.0
230
1.0
 70
    24
 71
     3
 72
     8
 73
     4
 74
     0
 42
0.0000000001
 43
0.0000000001
 40
0.0
 40
0.0
 40
0.0
 40
0.0
 40
1.0
 40
1.0
 40
1.0
 40
1.0
 10
518.7056
 20
83.5896
 30
0.0
 10
518.7056
 20
83.5896
 30
0.0
 10
519.8274
 20
83.5896
 30
0.0
 10
519.8274
 20
83.5896
 30
0.0
  0
SPLINE
  5
A5
330
1F
100
AcDbEntity
  8
DEFPOINTS
370
    25
100
AcDbSpline
210
0.0
220
0.0
230
1.0
 70
    24
 71
     3
 72
     8
 73
     4
 74
     0
 42
0.0000000001
 43
0.0000000001
 40
0.0
 40
0.0
 40
0.0
 40
0.0
 40
1.0
 40
1.0
 40
1.0
 40
1.0
 10
520.3989
 20
83.5896
 30
0.0
 10
520.3989
 20
83.5896
 30
0.0
 10
521.5208
 20
83.5896
 30
0.0
 10
521.5208
 20
83.5896
 30
0.0
  0
SPLINE
  5
A6
330
1F
100
AcDbEntity
  8
DEFPOINTS
370
    25
100
AcDbSpline
210
0.0
220
0.0
230
1.0
 70
    24
 71
     3
 72
     8
 73
     4
 74
     0
 42
0.0000000001
 43
0.0000000001
 40
0.0
 40
0.0
 40
0.0
 40
0.0
 40
1.0
 40
1.0
 40
1.0
 40
1.0
 10
522.0711
 20
83.5896
 30
0.0
 10
522.0711
 20
83.5896
 30
0.0
 10
523.2141
 20
83.5896
 30
0.0
 10
523.2141
 20
83.5896
 30
0.0
  0
SPLINE
  5
A7
330
1F
100
AcDbEntity
  8
DEFPOINTS
370
    25
100
AcDbSpline
210
0.0
220
0.0
230
1.0
 70
    24
 71
     3
 72
     8
 73
     4
 74
     0
 42
0.0000000001
 43
0.0000000001
 40
0.0
 40
0.0
 40
0.0
 40
0.0
 40
1.0
 40
1.0
 40
1.0
 40
1.0
 10
523.7644
 20
83.5896
 30
0.0
 10
523.7644
 20
83.5896
 30
0.0
 10
524.8863
 20
83.5896
 30
0.0
 10
524.8863
 20
83.5896
 30
0.0
  0
SPLINE
  5
A8
330
1F
100
AcDbEntity
  8
DEFPOINTS
370
    25
100
AcDbSpline
210
0.0
220
0.0
230
1.0
 70
    24
 71
     3
 72
     8
 73
     4
 74
     0
 42
0.0000000001
 43
0.0000000001
 40
0.0
 40
0.0
 40
0.0
 40
0.0
 40
1.0
 40
1.0
 40
1.0
 40
1.0
 10
525.4578
 20
83.5896
 30
0.0
 10
525.4578
 20
83.5896
 30
0.0
 10
526.5796
 20
83.5896
 30
0.0
 10
526.5796
 20
83.5896
 30
0.0
  0
SPLINE
  5
A9
330
1F
100
AcDbEntity
  8
DEFPOINTS
370
    25
100
AcDbSpline
210
0.0
220
0.0
230
1.0
 70
    24
 71
     3
 72
     8
 73
     4
 74
     0
 42
0.0000000001
 43
0.0000000001
 40
0.0
 40
0.0
 40
0.0
 40
0.0
 40
1.0
 40
1.0
 40
1.0
 40
1.0
 10
527.1299
 20
83.5896
 30
0.0
 10
527.1299
 20
83.5896
 30
0.0
 10
528.2518
 20
83.5896
 30
0.0
 10
528.2518
 20
83.5896
 30
0.0
  0
SPLINE
  5
AA
330
1F
100
AcDbEntity
  8
DEFPOINTS
370
    25
100
AcDbSpline
210
0.0
220
0.0
230
1.0
 70
    24
 71
     3
 72
     8
 73
     4
 74
     0
 42
0.0000000001
 43
0.0000000001
 40
0.0
 40
0.0
 40
0.0
 40
0.0
 40
1.0
 40
1.0
 40
1.0
 40
1.0
 10
528.8233
 20
83.5896
 30
0.0
 10
528.8233
 20
83.5896
 30
0.0
 10
529.9451
 20
83.5896
 30
0.0
 10
529.9451
 20
83.5896
 30
0.0
  0
SPLINE
  5
AB
330
1F
100
AcDbEntity
  8
DEFPOINTS
370
    25
100
AcDbSpline
210
0.0
220
0.0
230
1.0
 70
    24
 71
     3
 72
     8
 73
     4
 74
     0
 42
0.0000000001
 43
0.0000000001
 40
0.0
 40
0.0
 40
0.0
 40
0.0
 40
1.0
 40
1.0
 40
1.0
 40
1.0
 10
530.4954
 20
83.5896
 30
0.0
 10
530.4954
 20
83.5896
 30
0.0
 10
531.6173
 20
83.5896
 30
0.0
 10
531.6173
 20
83.5896
 30
0.0
  0
SPLINE
  5
AC
330
1F
100
AcDbEntity
  8
DEFPOINTS
370
    25
100
AcDbSpline
210
0.0
220
0.0
230
1.0
 70
    24
 71
     3
 72
     8
 73
     4
 74
     0
 42
0.0000000001
 43
0.0000000001
 40
0.0
 40
0.0
 40
0.0
 40
0.0
 40
1.0
 40
1.0
 40
1.0
 40
1.0
 10
532.1888
 20
83.5896
 30
0.0
 10
532.1888
 20
83.5896
 30
0.0
 10
533.3106
 20
83.5896
 30
0.0
 10
533.3106
 20
83.5896
 30
0.0
  0
SPLINE
  5
AD
330
1F
100
AcDbEntity
  8
DEFPOINTS
370
    25
100
AcDbSpline
210
0.0
220
0.0
230
1.0
 70
    24
 71
     3
 72
     8
 73
     4
 74
     0
 42
0.0000000001
 43
0.0000000001
 40
0.0
 40
0.0
 40
0.0
 40
0.0
 40
1.0
 40
1.0
 40
1.0
 40
1.0
 10
533.8609
 20
83.5896
 30
0.0
 10
533.8609
 20
83.5896
 30
0.0
 10
534.9828
 20
83.5896
 30
0.0
 10
534.9828
 20
83.5896
 30
0.0
  0
SPLINE
  5
AE
330
1F
100
AcDbEntity
  8
DEFPOINTS
370
    25
100
AcDbSpline
210
0.0
220
0.0
230
1.0
 70
    24
 71
     3
 72
     8
 73
     4
 74
     0
 42
0.0000000001
 43
0.0000000001
 40
0.0
 40
0.0
 40
0.0
 40
0.0
 40
1.0
 40
1.0
 40
1.0
 40
1.0
 10
535.5543
 20
83.5896
 30
0.0
 10
535.5543
 20
83.5896
 30
0.0
 10
536.6761
 20
83.5896
 30
0.0
 10
536.6761
 20
83.5896
 30
0.0
  0
SPLINE
  5
AF
330
1F
100
AcDbEntity
  8
DEFPOINTS
370
    25
100
AcDbSpline
210
0.0
220
0.0
230
1.0
 70
    24
 71
     3
 72
     8
 73
     4
 74
     0
 42
0.0000000001
 43
0.0000000001
 40
0.0
 40
0.0
 40
0.0
 40
0.0
 40
1.0
 40
1.0
 40
1.0
 40
1.0
 10
537.2264
 20
83.5896
 30
0.0
 10
537.2264
 20
83.5896
 30
0.0
 10
538.3483
 20
83.5896
 30
0.0
 10
538.3483
 20
83.5896
 30
0.0
  0
SPLINE
  5
B0
330
1F
100
AcDbEntity
  8
DEFPOINTS
370
    25
100
AcDbSpline
210
0.0
220
0.0
230
1.0
 70
    24
 71
     3
 72
     8
 73
     4
 74
     0
 42
0.0000000001
 43
0.0000000001
 40
0.0
 40
0.0
 40
0.0
 40
0.0
 40
1.0
 40
1.0
 40
1.0
 40
1.0
 10
538.9198
 20
83.5896
 30
0.0
 10
538.9198
 20
83.5896
 30
0.0
 10
540.0416
 20
83.5896
 30
0.0
 10
540.0416
 20
83.5896
 30
0.0
  0
SPLINE
  5
B1
330
1F
100
AcDbEntity
  8
DEFPOINTS
370
    25
100
AcDbSpline
210
0.0
220
0.0
230
1.0
 70
    24
 71
     3
 72
     8
 73
     4
 74
     0
 42
0.0000000001
 43
0.0000000001
 40
0.0
 40
0.0
 40
0.0
 40
0.0
 40
1.0
 40
1.0
 40
1.0
 40
1.0
 10
540.5919
 20
83.5896
 30
0.0
 10
540.5919
 20
83.5896
 30
0.0
 10
541.7138
 20
83.5896
 30
0.0
 10
541.7138
 20
83.5896
 30
0.0
  0
SPLINE
  5
B2
330
1F
100
AcDbEntity
  8
DEFPOINTS
370
    25
100
AcDbSpline
210
0.0
220
0.0
230
1.0
 70
    24
 71
     3
 72
     8
 73
     4
 74
     0
 42
0.0000000001
 43
0.0000000001
 40
0.0
 40
0.0
 40
0.0
 40
0.0
 40
1.0
 40
1.0
 40
1.0
 40
1.0
 10
542.2853
 20
83.5896
 30
0.0
 10
542.2853
 20
83.5896
 30
0.0
 10
543.4071
 20
83.5896
 30
0.0
 10
543.4071
 20
83.5896
 30
0.0
  0
SPLINE
  5
B3
330
1F
100
AcDbEntity
  8
DEFPOINTS
370
    25
100
AcDbSpline
210
0.0
220
0.0
230
1.0
 70
    24
 71
     3
 72
     8
 73
     4
 74
     0
 42
0.0000000001
 43
0.0000000001
 40
0.0
 40
0.0
 40
0.0
 40
0.0
 40
1.0
 40
1.0
 40
1.0
 40
1.0
 10
543.9574
 20
83.5896
 30
0.0
 10
543.9574
 20
83.5896
 30
0.0
 10
545.0793
 20
83.5896
 30
0.0
 10
545.0793
 20
83.5896
 30
0.0
  0
SPLINE
  5
B4
330
1F
100
AcDbEntity
  8
DEFPOINTS
370
    25
100
AcDbSpline
210
0.0
220
0.0
230
1.0
 70
    24
 71
     3
 72
     8
 73
     4
 74
     0
 42
0.0000000001
 43
0.0000000001
 40
0.0
 40
0.0
 40
0.0
 40
0.0
 40
1.0
 40
1.0
 40
1.0
 40
1.0
 10
545.6508
 20
83.5896
 30
0.0
 10
545.6508
 20
83.5896
 30
0.0
 10
546.7726
 20
83.5896
 30
0.0
 10
546.7726
 20
83.5896
 30
0.0
  0
SPLINE
  5
B5
330
1F
100
AcDbEntity
  8
DEFPOINTS
370
    25
100
AcDbSpline
210
0.0
220
0.0
230
1.0
 70
    24
 71
     3
 72
     8
 73
     4
 74
     0
 42
0.0000000001
 43
0.0000000001
 40
0.0
 40
0.0
 40
0.0
 40
0.0
 40
1.0
 40
1.0
 40
1.0
 40
1.0
 10
547.3229
 20
83.5896
 30
0.0
 10
547.3229
 20
83.5896
 30
0.0
 10
548.4448
 20
83.5896
 30
0.0
 10
548.4448
 20
83.5896
 30
0.0
  0
SPLINE
  5
B6
330
1F
100
AcDbEntity
  8
DEFPOINTS
370
    25
100
AcDbSpline
210
0.0
220
0.0
230
1.0
 70
    24
 71
     3
 72
     8
 73
     4
 74
     0
 42
0.0000000001
 43
0.0000000001
 40
0.0
 40
0.0
 40
0.0
 40
0.0
 40
1.0
 40
1.0
 40
1.0
 40
1.0
 10
549.0163
 20
83.5896
 30
0.0
 10
549.0163
 20
83.5896
 30
0.0
 10
550.1381
 20
83.5896
 30
0.0
 10
550.1381
 20
83.5896
 30
0.0
  0
SPLINE
  5
B7
330
1F
100
AcDbEntity
  8
DEFPOINTS
370
    25
100
AcDbSpline
210
0.0
220
0.0
230
1.0
 70
    24
 71
     3
 72
     8
 73
     4
 74
     0
 42
0.0000000001
 43
0.0000000001
 40
0.0
 40
0.0
 40
0.0
 40
0.0
 40
1.0
 40
1.0
 40
1.0
 40
1.0
 10
550.7096
 20
83.5896
 30
0.0
 10
550.7096
 20
83.5896
 30
0.0
 10
551.8314
 20
83.5896
 30
0.0
 10
551.8314
 20
83.5896
 30
0.0
  0
SPLINE
  5
B8
330
1F
100
AcDbEntity
  8
DEFPOINTS
370
    25
100
AcDbSpline
210
0.0
220
0.0
230
1.0
 70
    24
 71
     3
 72
     8
 73
     4
 74
     0
 42
0.0000000001
 43
0.0000000001
 40
0.0
 40
0.0
 40
0.0
 40
0.0
 40
1.0
 40
1.0
 40
1.0
 40
1.0
 10
552.3818
 20
83.5896
 30
0.0
 10
552.3818
 20
83.5896
 30
0.0
 10
553.5036
 20
83.5896
 30
0.0
 10
553.5036
 20
83.5896
 30
0.0
  0
SPLINE
  5
B9
330
1F
100
AcDbEntity
  8
DEFPOINTS
370
    25
100
AcDbSpline
210
0.0
220
0.0
230
1.0
 70
    24
 71
     3
 72
     8
 73
     4
 74
     0
 42
0.0000000001
 43
0.0000000001
 40
0.0
 40
0.0
 40
0.0
 40
0.0
 40
1.0
 40
1.0
 40
1.0
 40
1.0
 10
554.0751
 20
83.5896
 30
0.0
 10
554.0751
 20
83.5896
 30
0.0
 10
555.3663
 20
83.5896
 30
0.0
 10
555.3663
 20
83.5896
 30
0.0
  0
SPLINE
  5
BA
330
1F
100
AcDbEntity
  8
DEFPOINTS
370
    25
100
AcDbSpline
210
0.0
220
0.0
230
1.0
 70
    24
 71
     3
 72
     8
 73
     4
 74
     0
 42
0.0000000001
 43
0.0000000001
 40
0.0
 40
0.0
 40
0.0
 40
0.0
 40
1.0
 40
1.0
 40
1.0
 40
1.0
 10
557.6099
 20
81.346
 30
0.0
 10
557.6099
 20
81.346
 30
0.0
 10
557.6099
 20
79.949
 30
0.0
 10
557.6099
 20
79.949
 30
0.0
  0
SPLINE
  5
BB
330
1F
100
AcDbEntity
  8
DEFPOINTS
370
    25
100
AcDbSpline
210
0.0
220
0.0
230
1.0
 70
    24
 71
     3
 72
     8
 73
     4
 74
     0
 42
0.0000000001
 43
0.0000000001
 40
0.0
 40
0.0
 40
0.0
 40
0.0
 40
1.0
 40
1.0
 40
1.0
 40
1.0
 10
557.6099
 20
79.3986
 30
0.0
 10
557.6099
 20
79.3986
 30
0.0
 10
557.6099
 20
78.2768
 30
0.0
 10
557.6099
 20
78.2768
 30
0.0
  0
SPLINE
  5
BC
330
1F
100
AcDbEntity
  8
DEFPOINTS
370
    25
100
AcDbSpline
210
0.0
220
0.0
230
1.0
 70
    24
 71
     3
 72
     8
 73
     4
 74
     0
 42
0.0000000001
 43
0.0000000001
 40
0.0
 40
0.0
 40
0.0
 40
0.0
 40
1.0
 40
1.0
 40
1.0
 40
1.0
 10
557.6099
 20
77.7053
 30
0.0
 10
557.6099
 20
77.7053
 30
0.0
 10
557.6099
 20
76.5835
 30
0.0
 10
557.6099
 20
76.5835
 30
0.0
  0
SPLINE
  5
BD
330
1F
100
AcDbEntity
  8
DEFPOINTS
370
    25
100
AcDbSpline
210
0.0
220
0.0
230
1.0
 70
    24
 71
     3
 72
     8
 73
     4
 74
     0
 42
0.0000000001
 43
0.0000000001
 40
0.0
 40
0.0
 40
0.0
 40
0.0
 40
1.0
 40
1.0
 40
1.0
 40
1.0
 10
557.6099
 20
76.0331
 30
0.0
 10
557.6099
 20
76.0331
 30
0.0
 10
557.6099
 20
74.9113
 30
0.0
 10
557.6099
 20
74.9113
 30
0.0
  0
SPLINE
  5
BE
330
1F
100
AcDbEntity
  8
DEFPOINTS
370
    25
100
AcDbSpline
210
0.0
220
0.0
230
1.0
 70
    24
 71
     3
 72
     8
 73
     4
 74
     0
 42
0.0000000001
 43
0.0000000001
 40
0.0
 40
0.0
 40
0.0
 40
0.0
 40
1.0
 40
1.0
 40
1.0
 40
1.0
 10
557.6099
 20
74.3398
 30
0.0
 10
557.6099
 20
74.3398
 30
0.0
 10
557.6099
 20
73.218
 30
0.0
 10
557.6099
 20
73.218
 30
0.0
  0
SPLINE
  5
BF
330
1F
100
AcDbEntity
  8
DEFPOINTS
370
    25
100
AcDbSpline
210
0.0
220
0.0
230
1.0
 70
    24
 71
     3
 72
     8
 73
     4
 74
     0
 42
0.0000000001
 43
0.0000000001
 40
0.0
 40
0.0
 40
0.0
 40
0.0
 40
1.0
 40
1.0
 40
1.0
 40
1.0
 10
557.6099
 20
72.6676
 30
0.0
 10
557.6099
 20
72.6676
 30
0.0
 10
557.6099
 20
71.5458
 30
0.0
 10
557.6099
 20
71.5458
 30
0.0
  0
SPLINE
  5
C0
330
1F
100
AcDbEntity
  8
DEFPOINTS
370
    25
100
AcDbSpline
210
0.0
220
0.0
230
1.0
 70
    24
 71
     3
 72
     8
 73
     4
 74
     0
 42
0.0000000001
 43
0.0000000001
 40
0.0
 40
0.0
 40
0.0
 40
0.0
 40
1.0
 40
1.0
 40
1.0
 40
1.0
 10
557.6099
 20
70.9743
 30
0.0
 10
557.6099
 20
70.9743
 30
0.0
 10
557.6099
 20
69.8525
 30
0.0
 10
557.6099
 20
69.8525
 30
0.0
  0
SPLINE
  5
C1
330
1F
100
AcDbEntity
  8
DEFPOINTS
370
    25
100
AcDbSpline
210
0.0
220
0.0
230
1.0
 70
    24
 71
     3
 72
     8
 73
     4
 74
     0
 42
0.0000000001
 43
0.0000000001
 40
0.0
 40
0.0
 40
0.0
 40
0.0
 40
1.0
 40
1.0
 40
1.0
 40
1.0
 10
557.6099
 20
69.3021
 30
0.0
 10
557.6099
 20
69.3021
 30
0.0
 10
557.6099
 20
68.1803
 30
0.0
 10
557.6099
 20
68.1803
 30
0.0
  0
SPLINE
  5
C2
330
1F
100
AcDbEntity
  8
DEFPOINTS
370
    25
100
AcDbSpline
210
0.0
220
0.0
230
1.0
 70
    24
 71
     3
 72
     8
 73
     4
 74
     0
 42
0.0000000001
 43
0.0000000001
 40
0.0
 40
0.0
 40
0.0
 40
0.0
 40
1.0
 40
1.0
 40
1.0
 40
1.0
 10
557.6099
 20
67.6088
 30
0.0
 10
557.6099
 20
67.6088
 30
0.0
 10
557.6099
 20
66.487
 30
0.0
 10
557.6099
 20
66.487
 30
0.0
  0
SPLINE
  5
C3
330
1F
100
AcDbEntity
  8
DEFPOINTS
370
    25
100
AcDbSpline
210
0.0
220
0.0
230
1.0
 70
    24
 71
     3
 72
     8
 73
     4
 74
     0
 42
0.0000000001
 43
0.0000000001
 40
0.0
 40
0.0
 40
0.0
 40
0.0
 40
1.0
 40
1.0
 40
1.0
 40
1.0
 10
557.6099
 20
65.9366
 30
0.0
 10
557.6099
 20
65.9366
 30
0.0
 10
557.6099
 20
64.8148
 30
0.0
 10
557.6099
 20
64.8148
 30
0.0
  0
SPLINE
  5
C4
330
1F
100
AcDbEntity
  8
DEFPOINTS
370
    25
100
AcDbSpline
210
0.0
220
0.0
230
1.0
 70
    24
 71
     3
 72
     8
 73
     4
 74
     0
 42
0.0000000001
 43
0.0000000001
 40
0.0
 40
0.0
 40
0.0
 40
0.0
 40
1.0
 40
1.0
 40
1.0
 40
1.0
 10
557.6099
 20
64.2433
 30
0.0
 10
557.6099
 20
64.2433
 30
0.0
 10
557.6099
 20
63.1215
 30
0.0
 10
557.6099
 20
63.1215
 30
0.0
  0
SPLINE
  5
C5
330
1F
100
AcDbEntity
  8
DEFPOINTS
370
    25
100
AcDbSpline
210
0.0
220
0.0
230
1.0
 70
    24
 71
     3
 72
     8
 73
     4
 74
     0
 42
0.0000000001
 43
0.0000000001
 40
0.0
 40
0.0
 40
0.0
 40
0.0
 40
1.0
 40
1.0
 40
1.0
 40
1.0
 10
557.6099
 20
62.5711
 30
0.0
 10
557.6099
 20
62.5711
 30
0.0
 10
557.6099
 20
61.4281
 30
0.0
 10
557.6099
 20
61.4281
 30
0.0
  0
SPLINE
  5
C6
330
1F
100
AcDbEntity
  8
DEFPOINTS
370
    25
100
AcDbSpline
210
0.0
220
0.0
230
1.0
 70
    24
 71
     3
 72
     8
 73
     4
 74
     0
 42
0.0000000001
 43
0.0000000001
 40
0.0
 40
0.0
 40
0.0
 40
0.0
 40
1.0
 40
1.0
 40
1.0
 40
1.0
 10
557.6099
 20
60.8778
 30
0.0
 10
557.6099
 20
60.8778
 30
0.0
 10
557.6099
 20
59.756
 30
0.0
 10
557.6099
 20
59.756
 30
0.0
  0
SPLINE
  5
C7
330
1F
100
AcDbEntity
  8
DEFPOINTS
370
    25
100
AcDbSpline
210
0.0
220
0.0
230
1.0
 70
    24
 71
     3
 72
     8
 73
     4
 74
     0
 42
0.0000000001
 43
0.0000000001
 40
0.0
 40
0.0
 40
0.0
 40
0.0
 40
1.0
 40
1.0
 40
1.0
 40
1.0
 10
557.6099
 20
59.1845
 30
0.0
 10
557.6099
 20
59.1845
 30
0.0
 10
557.6099
 20
58.0626
 30
0.0
 10
557.6099
 20
58.0626
 30
0.0
  0
SPLINE
  5
C8
330
1F
100
AcDbEntity
  8
DEFPOINTS
370
    25
100
AcDbSpline
210
0.0
220
0.0
230
1.0
 70
    24
 71
     3
 72
     8
 73
     4
 74
     0
 42
0.0000000001
 43
0.0000000001
 40
0.0
 40
0.0
 40
0.0
 40
0.0
 40
1.0
 40
1.0
 40
1.0
 40
1.0
 10
557.6099
 20
57.5123
 30
0.0
 10
557.6099
 20
57.5123
 30
0.0
 10
557.6099
 20
56.3905
 30
0.0
 10
557.6099
 20
56.3905
 30
0.0
  0
SPLINE
  5
C9
330
1F
100
AcDbEntity
  8
DEFPOINTS
370
    25
100
AcDbSpline
210
0.0
220
0.0
230
1.0
 70
    24
 71
     3
 72
     8
 73
     4
 74
     0
 42
0.0000000001
 43
0.0000000001
 40
0.0
 40
0.0
 40
0.0
 40
0.0
 40
1.0
 40
1.0
 40
1.0
 40
1.0
 10
557.6099
 20
55.819
 30
0.0
 10
557.6099
 20
55.819
 30
0.0
 10
557.6099
 20
54.6971
 30
0.0
 10
557.6099
 20
54.6971
 30
0.0
  0
SPLINE
  5
CA
330
1F
100
AcDbEntity
  8
DEFPOINTS
370
    25
100
AcDbSpline
210
0.0
220
0.0
230
1.0
 70
    24
 71
     3
 72
     8
 73
     4
 74
     0
 42
0.0000000001
 43
0.0000000001
 40
0.0
 40
0.0
 40
0.0
 40
0.0
 40
1.0
 40
1.0
 40
1.0
 40
1.0
 10
557.6099
 20
54.1468
 30
0.0
 10
557.6099
 20
54.1468
 30
0.0
 10
557.6099
 20
53.025
 30
0.0
 10
557.6099
 20
53.025
 30
0.0
  0
SPLINE
  5
CB
330
1F
100
AcDbEntity
  8
DEFPOINTS
370
    25
100
AcDbSpline
210
0.0
220
0.0
230
1.0
 70
    24
 71
     3
 72
     8
 73
     4
 74
     0
 42
0.0000000001
 43
0.0000000001
 40
0.0
 40
0.0
 40
0.0
 40
0.0
 40
1.0
 40
1.0
 40
1.0
 40
1.0
 10
557.6099
 20
52.4535
 30
0.0
 10
557.6099
 20
52.4535
 30
0.0
 10
557.6099
 20
51.3316
 30
0.0
 10
557.6099
 20
51.3316
 30
0.0
  0
SPLINE
  5
CC
330
1F
100
AcDbEntity
  8
DEFPOINTS
370
    25
100
AcDbSpline
210
0.0
220
0.0
230
1.0
 70
    24
 71
     3
 72
     8
 73
     4
 74
     0
 42
0.0000000001
 43
0.0000000001
 40
0.0
 40
0.0
 40
0.0
 40
0.0
 40
1.0
 40
1.0
 40
1.0
 40
1.0
 10
557.6099
 20
50.7813
 30
0.0
 10
557.6099
 20
50.7813
 30
0.0
 10
557.6099
 20
49.6595
 30
0.0
 10
557.6099
 20
49.6595
 30
0.0
  0
SPLINE
  5
CD
330
1F
100
AcDbEntity
  8
DEFPOINTS
370
    25
100
AcDbSpline
210
0.0
220
0.0
230
1.0
 70
    24
 71
     3
 72
     8
 73
     4
 74
     0
 42
0.0000000001
 43
0.0000000001
 40
0.0
 40
0.0
 40
0.0
 40
0.0
 40
1.0
 40
1.0
 40
1.0
 40
1.0
 10
557.6099
 20
49.088
 30
0.0
 10
557.6099
 20
49.088
 30
0.0
 10
557.6099
 20
47.9661
 30
0.0
 10
557.6099
 20
47.9661
 30
0.0
  0
SPLINE
  5
CE
330
1F
100
AcDbEntity
  8
DEFPOINTS
370
    25
100
AcDbSpline
210
0.0
220
0.0
230
1.0
 70
    24
 71
     3
 72
     8
 73
     4
 74
     0
 42
0.0000000001
 43
0.0000000001
 40
0.0
 40
0.0
 40
0.0
 40
0.0
 40
1.0
 40
1.0
 40
1.0
 40
1.0
 10
557.6099
 20
47.4158
 30
0.0
 10
557.6099
 20
47.4158
 30
0.0
 10
557.6099
 20
46.294
 30
0.0
 10
557.6099
 20
46.294
 30
0.0
  0
SPLINE
  5
CF
330
1F
100
AcDbEntity
  8
DEFPOINTS
370
    25
100
AcDbSpline
210
0.0
220
0.0
230
1.0
 70
    24
 71
     3
 72
     8
 73
     4
 74
     0
 42
0.0000000001
 43
0.0000000001
 40
0.0
 40
0.0
 40
0.0
 40
0.0
 40
1.0
 40
1.0
 40
1.0
 40
1.0
 10
557.6099
 20
45.7225
 30
0.0
 10
557.6099
 20
45.7225
 30
0.0
 10
557.6099
 20
44.6006
 30
0.0
 10
557.6099
 20
44.6006
 30
0.0
  0
SPLINE
  5
D0
330
1F
100
AcDbEntity
  8
DEFPOINTS
370
    25
100
AcDbSpline
210
0.0
220
0.0
230
1.0
 70
    24
 71
     3
 72
     8
 73
     4
 74
     0
 42
0.0000000001
 43
0.0000000001
 40
0.0
 40
0.0
 40
0.0
 40
0.0
 40
1.0
 40
1.0
 40
1.0
 40
1.0
 10
557.6099
 20
44.0503
 30
0.0
 10
557.6099
 20
44.0503
 30
0.0
 10
557.6099
 20
42.9285
 30
0.0
 10
557.6099
 20
42.9285
 30
0.0
  0
SPLINE
  5
D1
330
1F
100
AcDbEntity
  8
DEFPOINTS
370
    25
100
AcDbSpline
210
0.0
220
0.0
230
1.0
 70
    24
 71
     3
 72
     8
 73
     4
 74
     0
 42
0.0000000001
 43
0.0000000001
 40
0.0
 40
0.0
 40
0.0
 40
0.0
 40
1.0
 40
1.0
 40
1.0
 40
1.0
 10
557.6099
 20
42.357
 30
0.0
 10
557.6099
 20
42.357
 30
0.0
 10
557.6099
 20
41.2351
 30
0.0
 10
557.6099
 20
41.2351
 30
0.0
  0
SPLINE
  5
D2
330
1F
100
AcDbEntity
  8
DEFPOINTS
370
    25
100
AcDbSpline
210
0.0
220
0.0
230
1.0
 70
    24
 71
     3
 72
     8
 73
     4
 74
     0
 42
0.0000000001
 43
0.0000000001
 40
0.0
 40
0.0
 40
0.0
 40
0.0
 40
1.0
 40
1.0
 40
1.0
 40
1.0
 10
557.6099
 20
40.6848
 30
0.0
 10
557.6099
 20
40.6848
 30
0.0
 10
557.6099
 20
39.5418
 30
0.0
 10
557.6099
 20
39.5418
 30
0.0
  0
SPLINE
  5
D3
330
1F
100
AcDbEntity
  8
DEFPOINTS
370
    25
100
AcDbSpline
210
0.0
220
0.0
230
1.0
 70
    24
 71
     3
 72
     8
 73
     4
 74
     0
 42
0.0000000001
 43
0.0000000001
 40
0.0
 40
0.0
 40
0.0
 40
0.0
 40
1.0
 40
1.0
 40
1.0
 40
1.0
 10
557.6099
 20
38.9915
 30
0.0
 10
557.6099
 20
38.9915
 30
0.0
 10
557.6099
 20
37.8696
 30
0.0
 10
557.6099
 20
37.8696
 30
0.0
  0
SPLINE
  5
D4
330
1F
100
AcDbEntity
  8
DEFPOINTS
370
    25
100
AcDbSpline
210
0.0
220
0.0
230
1.0
 70
    24
 71
     3
 72
     8
 73
     4
 74
     0
 42
0.0000000001
 43
0.0000000001
 40
0.0
 40
0.0
 40
0.0
 40
0.0
 40
1.0
 40
1.0
 40
1.0
 40
1.0
 10
557.6099
 20
37.2981
 30
0.0
 10
557.6099
 20
37.2981
 30
0.0
 10
557.6099
 20
36.1763
 30
0.0
 10
557.6099
 20
36.1763
 30
0.0
  0
SPLINE
  5
D5
330
1F
100
AcDbEntity
  8
DEFPOINTS
370
    25
100
AcDbSpline
210
0.0
220
0.0
230
1.0
 70
    24
 71
     3
 72
     8
 73
     4
 74
     0
 42
0.0000000001
 43
0.0000000001
 40
0.0
 40
0.0
 40
0.0
 40
0.0
 40
1.0
 40
1.0
 40
1.0
 40
1.0
 10
557.6099
 20
35.626
 30
0.0
 10
557.6099
 20
35.626
 30
0.0
 10
557.6099
 20
34.5041
 30
0.0
 10
557.6099
 20
34.5041
 30
0.0
  0
SPLINE
  5
D6
330
1F
100
AcDbEntity
  8
DEFPOINTS
370
    25
100
AcDbSpline
210
0.0
220
0.0
230
1.0
 70
    24
 71
     3
 72
     8
 73
     4
 74
     0
 42
0.0000000001
 43
0.0000000001
 40
0.0
 40
0.0
 40
0.0
 40
0.0
 40
1.0
 40
1.0
 40
1.0
 40
1.0
 10
557.6099
 20
33.9326
 30
0.0
 10
557.6099
 20
33.9326
 30
0.0
 10
557.6099
 20
32.8108
 30
0.0
 10
557.6099
 20
32.8108
 30
0.0
  0
SPLINE
  5
D7
330
1F
100
AcDbEntity
  8
DEFPOINTS
370
    25
100
AcDbSpline
210
0.0
220
0.0
230
1.0
 70
    24
 71
     3
 72
     8
 73
     4
 74
     0
 42
0.0000000001
 43
0.0000000001
 40
0.0
 40
0.0
 40
0.0
 40
0.0
 40
1.0
 40
1.0
 40
1.0
 40
1.0
 10
557.6099
 20
32.2605
 30
0.0
 10
557.6099
 20
32.2605
 30
0.0
 10
557.6099
 20
31.1386
 30
0.0
 10
557.6099
 20
31.1386
 30
0.0
  0
SPLINE
  5
D8
330
1F
100
AcDbEntity
  8
DEFPOINTS
370
    25
100
AcDbSpline
210
0.0
220
0.0
230
1.0
 70
    24
 71
     3
 72
     8
 73
     4
 74
     0
 42
0.0000000001
 43
0.0000000001
 40
0.0
 40
0.0
 40
0.0
 40
0.0
 40
1.0
 40
1.0
 40
1.0
 40
1.0
 10
557.6099
 20
30.5671
 30
0.0
 10
557.6099
 20
30.5671
 30
0.0
 10
557.6099
 20
29.4453
 30
0.0
 10
557.6099
 20
29.4453
 30
0.0
  0
SPLINE
  5
D9
330
1F
100
AcDbEntity
  8
DEFPOINTS
370
    25
100
AcDbSpline
210
0.0
220
0.0
230
1.0
 70
    24
 71
     3
 72
     8
 73
     4
 74
     0
 42
0.0000000001
 43
0.0000000001
 40
0.0
 40
0.0
 40
0.0
 40
0.0
 40
1.0
 40
1.0
 40
1.0
 40
1.0
 10
557.6099
 20
28.895
 30
0.0
 10
557.6099
 20
28.895
 30
0.0
 10
557.6099
 20
27.7731
 30
0.0
 10
557.6099
 20
27.7731
 30
0.0
  0
SPLINE
  5
DA
330
1F
100
AcDbEntity
  8
DEFPOINTS
370
    25
100
AcDbSpline
210
0.0
220
0.0
230
1.0
 70
    24
 71
     3
 72
     8
 73
     4
 74
     0
 42
0.0000000001
 43
0.0000000001
 40
0.0
 40
0.0
 40
0.0
 40
0.0
 40
1.0
 40
1.0
 40
1.0
 40
1.0
 10
557.6099
 20
27.2016
 30
0.0
 10
557.6099
 20
27.2016
 30
0.0
 10
557.6099
 20
26.0798
 30
0.0
 10
557.6099
 20
26.0798
 30
0.0
  0
SPLINE
  5
DB
330
1F
100
AcDbEntity
  8
DEFPOINTS
370
    25
100
AcDbSpline
210
0.0
220
0.0
230
1.0
 70
    24
 71
     3
 72
     8
 73
     4
 74
     0
 42
0.0000000001
 43
0.0000000001
 40
0.0
 40
0.0
 40
0.0
 40
0.0
 40
1.0
 40
1.0
 40
1.0
 40
1.0
 10
557.6099
 20
25.5295
 30
0.0
 10
557.6099
 20
25.5295
 30
0.0
 10
557.6099
 20
24.4076
 30
0.0
 10
557.6099
 20
24.4076
 30
0.0
  0
SPLINE
  5
DC
330
1F
100
AcDbEntity
  8
DEFPOINTS
370
    25
100
AcDbSpline
210
0.0
220
0.0
230
1.0
 70
    24
 71
     3
 72
     8
 73
     4
 74
     0
 42
0.0000000001
 43
0.0000000001
 40
0.0
 40
0.0
 40
0.0
 40
0.0
 40
1.0
 40
1.0
 40
1.0
 40
1.0
 10
557.6099
 20
23.8361
 30
0.0
 10
557.6099
 20
23.8361
 30
0.0
 10
557.6099
 20
22.7143
 30
0.0
 10
557.6099
 20
22.7143
 30
0.0
  0
SPLINE
  5
DD
330
1F
100
AcDbEntity
  8
DEFPOINTS
370
    25
100
AcDbSpline
210
0.0
220
0.0
230
1.0
 70
    24
 71
     3
 72
     8
 73
     4
 74
     0
 42
0.0000000001
 43
0.0000000001
 40
0.0
 40
0.0
 40
0.0
 40
0.0
 40
1.0
 40
1.0
 40
1.0
 40
1.0
 10
557.6099
 20
22.164
 30
0.0
 10
557.6099
 20
22.164
 30
0.0
 10
557.6099
 20
21.0421
 30
0.0
 10
557.6099
 20
21.0421
 30
0.0
  0
SPLINE
  5
DE
330
1F
100
AcDbEntity
  8
DEFPOINTS
370
    25
100
AcDbSpline
210
0.0
220
0.0
230
1.0
 70
    24
 71
     3
 72
     8
 73
     4
 74
     0
 42
0.0000000001
 43
0.0000000001
 40
0.0
 40
0.0
 40
0.0
 40
0.0
 40
1.0
 40
1.0
 40
1.0
 40
1.0
 10
557.6099
 20
20.4706
 30
0.0
 10
557.6099
 20
20.4706
 30
0.0
 10
557.6099
 20
19.3488
 30
0.0
 10
557.6099
 20
19.3488
 30
0.0
  0
SPLINE
  5
DF
330
1F
100
AcDbEntity
  8
DEFPOINTS
370
    25
100
AcDbSpline
210
0.0
220
0.0
230
1.0
 70
    24
 71
     3
 72
     8
 73
     4
 74
     0
 42
0.0000000001
 43
0.0000000001
 40
0.0
 40
0.0
 40
0.0
 40
0.0
 40
1.0
 40
1.0
 40
1.0
 40
1.0
 10
557.6099
 20
18.7985
 30
0.0
 10
557.6099
 20
18.7985
 30
0.0
 10
557.6099
 20
17.6766
 30
0.0
 10
557.6099
 20
17.6766
 30
0.0
  0
SPLINE
  5
E0
330
1F
100
AcDbEntity
  8
DEFPOINTS
370
    25
100
AcDbSpline
210
0.0
220
0.0
230
1.0
 70
    24
 71
     3
 72
     8
 73
     4
 74
     0
 42
0.0000000001
 43
0.0000000001
 40
0.0
 40
0.0
 40
0.0
 40
0.0
 40
1.0
 40
1.0
 40
1.0
 40
1.0
 10
557.6099
 20
17.1051
 30
0.0
 10
557.6099
 20
17.1051
 30
0.0
 10
557.6099
 20
15.9833
 30
0.0
 10
557.6099
 20
15.9833
 30
0.0
  0
SPLINE
  5
E1
330
1F
100
AcDbEntity
  8
DEFPOINTS
370
    25
100
AcDbSpline
210
0.0
220
0.0
230
1.0
 70
    24
 71
     3
 72
     8
 73
     4
 74
     0
 42
0.0000000001
 43
0.0000000001
 40
0.0
 40
0.0
 40
0.0
 40
0.0
 40
1.0
 40
1.0
 40
1.0
 40
1.0
 10
557.6099
 20
15.4118
 30
0.0
 10
557.6099
 20
15.4118
 30
0.0
 10
557.6099
 20
14.29
 30
0.0
 10
557.6099
 20
14.29
 30
0.0
  0
SPLINE
  5
E2
330
1F
100
AcDbEntity
  8
DEFPOINTS
370
    25
100
AcDbSpline
210
0.0
220
0.0
230
1.0
 70
     8
 71
     3
 72
    12
 73
     8
 74
     0
 42
0.0000000001
 43
0.0000000001
 40
0.0
 40
0.0
 40
0.0
 40
0.0
 40
0.5
 40
0.5
 40
0.5
 40
0.5
 40
1.0
 40
1.0
 40
1.0
 40
1.0
 10
557.6099
 20
13.7396
 30
0.0
 10
557.6099
 20
13.7396
 30
0.0
 10
557.6099
 20
12.3638
 30
0.0
 10
557.6099
 20
12.3638
 30
0.0
 10
557.6099
 20
12.3638
 30
0.0
 10
557.6099
 20
12.3638
 30
0.0
 10
435.4994
 20
12.3638
 30
0.0
 10
435.4994
 20
12.3638
 30
0.0
  0
SPLINE
  5
E3
330
1F
100
AcDbEntity
  8
DEFPOINTS
370
    25
100
AcDbSpline
210
0.0
220
0.0
230
1.0
 70
    24
 71
     3
 72
     8
 73
     4
 74
     0
 42
0.0000000001
 43
0.0000000001
 40
0.0
 40
0.0
 40
0.0
 40
0.0
 40
1.0
 40
1.0
 40
1.0
 40
1.0
 10
438.1876
 20
83.1451
 30
0.0
 10
438.1876
 20
83.1451
 30
0.0
 10
439.0343
 20
83.1451
 30
0.0
 10
439.0343
 20
83.1451
 30
0.0
  0
SPLINE
  5
E4
330
1F
100
AcDbEntity
  8
DEFPOINTS
370
    25
100
AcDbSpline
210
0.0
220
0.0
230
1.0
 70
    24
 71
     3
 72
     8
 73
     4
 74
     0
 42
0.0000000001
 43
0.0000000001
 40
0.0
 40
0.0
 40
0.0
 40
0.0
 40
1.0
 40
1.0
 40
1.0
 40
1.0
 10
439.5846
 20
83.1451
 30
0.0
 10
439.5846
 20
83.1451
 30
0.0
 10
440.7064
 20
83.1451
 30
0.0
 10
440.7064
 20
83.1451
 30
0.0
  0
SPLINE
  5
E5
330
1F
100
AcDbEntity
  8
DEFPOINTS
370
    25
100
AcDbSpline
210
0.0
220
0.0
230
1.0
 70
    24
 71
     3
 72
     8
 73
     4
 74
     0
 42
0.0000000001
 43
0.0000000001
 40
0.0
 40
0.0
 40
0.0
 40
0.0
 40
1.0
 40
1.0
 40
1.0
 40
1.0
 10
441.2779
 20
83.1451
 30
0.0
 10
441.2779
 20
83.1451
 30
0.0
 10
442.3998
 20
83.1451
 30
0.0
 10
442.3998
 20
83.1451
 30
0.0
  0
SPLINE
  5
E6
330
1F
100
AcDbEntity
  8
DEFPOINTS
370
    25
100
AcDbSpline
210
0.0
220
0.0
230
1.0
 70
    24
 71
     3
 72
     8
 73
     4
 74
     0
 42
0.0000000001
 43
0.0000000001
 40
0.0
 40
0.0
 40
0.0
 40
0.0
 40
1.0
 40
1.0
 40
1.0
 40
1.0
 10
442.9501
 20
83.1451
 30
0.0
 10
442.9501
 20
83.1451
 30
0.0
 10
444.0931
 20
83.1451
 30
0.0
 10
444.0931
 20
83.1451
 30
0.0
  0
SPLINE
  5
E7
330
1F
100
AcDbEntity
  8
DEFPOINTS
370
    25
100
AcDbSpline
210
0.0
220
0.0
230
1.0
 70
    24
 71
     3
 72
     8
 73
     4
 74
     0
 42
0.0000000001
 43
0.0000000001
 40
0.0
 40
0.0
 40
0.0
 40
0.0
 40
1.0
 40
1.0
 40
1.0
 40
1.0
 10
444.6434
 20
83.1451
 30
0.0
 10
444.6434
 20
83.1451
 30
0.0
 10
445.7653
 20
83.1451
 30
0.0
 10
445.7653
 20
83.1451
 30
0.0
  0
SPLINE
  5
E8
330
1F
100
AcDbEntity
  8
DEFPOINTS
370
    25
100
AcDbSpline
210
0.0
220
0.0
230
1.0
 70
    24
 71
     3
 72
     8
 73
     4
 74
     0
 42
0.0000000001
 43
0.0000000001
 40
0.0
 40
0.0
 40
0.0
 40
0.0
 40
1.0
 40
1.0
 40
1.0
 40
1.0
 10
446.3368
 20
83.1451
 30
0.0
 10
446.3368
 20
83.1451
 30
0.0
 10
447.4586
 20
83.1451
 30
0.0
 10
447.4586
 20
83.1451
 30
0.0
  0
SPLINE
  5
E9
330
1F
100
AcDbEntity
  8
DEFPOINTS
370
    25
100
AcDbSpline
210
0.0
220
0.0
230
1.0
 70
    24
 71
     3
 72
     8
 73
     4
 74
     0
 42
0.0000000001
 43
0.0000000001
 40
0.0
 40
0.0
 40
0.0
 40
0.0
 40
1.0
 40
1.0
 40
1.0
 40
1.0
 10
448.0089
 20
83.1451
 30
0.0
 10
448.0089
 20
83.1451
 30
0.0
 10
449.1308
 20
83.1451
 30
0.0
 10
449.1308
 20
83.1451
 30
0.0
  0
SPLINE
  5
EA
330
1F
100
AcDbEntity
  8
DEFPOINTS
370
    25
100
AcDbSpline
210
0.0
220
0.0
230
1.0
 70
    24
 71
     3
 72
     8
 73
     4
 74
     0
 42
0.0000000001
 43
0.0000000001
 40
0.0
 40
0.0
 40
0.0
 40
0.0
 40
1.0
 40
1.0
 40
1.0
 40
1.0
 10
449.7023
 20
83.1451
 30
0.0
 10
449.7023
 20
83.1451
 30
0.0
 10
450.8241
 20
83.1451
 30
0.0
 10
450.8241
 20
83.1451
 30
0.0
  0
SPLINE
  5
EB
330
1F
100
AcDbEntity
  8
DEFPOINTS
370
    25
100
AcDbSpline
210
0.0
220
0.0
230
1.0
 70
    24
 71
     3
 72
     8
 73
     4
 74
     0
 42
0.0000000001
 43
0.0000000001
 40
0.0
 40
0.0
 40
0.0
 40
0.0
 40
1.0
 40
1.0
 40
1.0
 40
1.0
 10
451.3744
 20
83.1451
 30
0.0
 10
451.3744
 20
83.1451
 30
0.0
 10
452.4963
 20
83.1451
 30
0.0
 10
452.4963
 20
83.1451
 30
0.0
  0
SPLINE
  5
EC
330
1F
100
AcDbEntity
  8
DEFPOINTS
370
    25
100
AcDbSpline
210
0.0
220
0.0
230
1.0
 70
    24
 71
     3
 72
     8
 73
     4
 74
     0
 42
0.0000000001
 43
0.0000000001
 40
0.0
 40
0.0
 40
0.0
 40
0.0
 40
1.0
 40
1.0
 40
1.0
 40
1.0
 10
453.0678
 20
83.1451
 30
0.0
 10
453.0678
 20
83.1451
 30
0.0
 10
454.1896
 20
83.1451
 30
0.0
 10
454.1896
 20
83.1451
 30
0.0
  0
SPLINE
  5
ED
330
1F
100
AcDbEntity
  8
DEFPOINTS
370
    25
100
AcDbSpline
210
0.0
220
0.0
230
1.0
 70
    24
 71
     3
 72
     8
 73
     4
 74
     0
 42
0.0000000001
 43
0.0000000001
 40
0.0
 40
0.0
 40
0.0
 40
0.0
 40
1.0
 40
1.0
 40
1.0
 40
1.0
 10
454.7399
 20
83.1451
 30
0.0
 10
454.7399
 20
83.1451
 30
0.0
 10
455.8618
 20
83.1451
 30
0.0
 10
455.8618
 20
83.1451
 30
0.0
  0
SPLINE
  5
EE
330
1F
100
AcDbEntity
  8
DEFPOINTS
370
    25
100
AcDbSpline
210
0.0
220
0.0
230
1.0
 70
    24
 71
     3
 72
     8
 73
     4
 74
     0
 42
0.0000000001
 43
0.0000000001
 40
0.0
 40
0.0
 40
0.0
 40
0.0
 40
1.0
 40
1.0
 40
1.0
 40
1.0
 10
456.4333
 20
83.1451
 30
0.0
 10
456.4333
 20
83.1451
 30
0.0
 10
457.5551
 20
83.1451
 30
0.0
 10
457.5551
 20
83.1451
 30
0.0
  0
SPLINE
  5
EF
330
1F
100
AcDbEntity
  8
DEFPOINTS
370
    25
100
AcDbSpline
210
0.0
220
0.0
230
1.0
 70
    24
 71
     3
 72
     8
 73
     4
 74
     0
 42
0.0000000001
 43
0.0000000001
 40
0.0
 40
0.0
 40
0.0
 40
0.0
 40
1.0
 40
1.0
 40
1.0
 40
1.0
 10
458.1054
 20
83.1451
 30
0.0
 10
458.1054
 20
83.1451
 30
0.0
 10
459.2273
 20
83.1451
 30
0.0
 10
459.2273
 20
83.1451
 30
0.0
  0
SPLINE
  5
F0
330
1F
100
AcDbEntity
  8
DEFPOINTS
370
    25
100
AcDbSpline
210
0.0
220
0.0
230
1.0
 70
    24
 71
     3
 72
     8
 73
     4
 74
     0
 42
0.0000000001
 43
0.0000000001
 40
0.0
 40
0.0
 40
0.0
 40
0.0
 40
1.0
 40
1.0
 40
1.0
 40
1.0
 10
459.7988
 20
83.1451
 30
0.0
 10
459.7988
 20
83.1451
 30
0.0
 10
460.9206
 20
83.1451
 30
0.0
 10
460.9206
 20
83.1451
 30
0.0
  0
SPLINE
  5
F1
330
1F
100
AcDbEntity
  8
DEFPOINTS
370
    25
100
AcDbSpline
210
0.0
220
0.0
230
1.0
 70
    24
 71
     3
 72
     8
 73
     4
 74
     0
 42
0.0000000001
 43
0.0000000001
 40
0.0
 40
0.0
 40
0.0
 40
0.0
 40
1.0
 40
1.0
 40
1.0
 40
1.0
 10
461.4709
 20
83.1451
 30
0.0
 10
461.4709
 20
83.1451
 30
0.0
 10
462.5928
 20
83.1451
 30
0.0
 10
462.5928
 20
83.1451
 30
0.0
  0
SPLINE
  5
F2
330
1F
100
AcDbEntity
  8
DEFPOINTS
370
    25
100
AcDbSpline
210
0.0
220
0.0
230
1.0
 70
    24
 71
     3
 72
     8
 73
     4
 74
     0
 42
0.0000000001
 43
0.0000000001
 40
0.0
 40
0.0
 40
0.0
 40
0.0
 40
1.0
 40
1.0
 40
1.0
 40
1.0
 10
463.1643
 20
83.1451
 30
0.0
 10
463.1643
 20
83.1451
 30
0.0
 10
464.2861
 20
83.1451
 30
0.0
 10
464.2861
 20
83.1451
 30
0.0
  0
SPLINE
  5
F3
330
1F
100
AcDbEntity
  8
DEFPOINTS
370
    25
100
AcDbSpline
210
0.0
220
0.0
230
1.0
 70
    24
 71
     3
 72
     8
 73
     4
 74
     0
 42
0.0000000001
 43
0.0000000001
 40
0.0
 40
0.0
 40
0.0
 40
0.0
 40
1.0
 40
1.0
 40
1.0
 40
1.0
 10
464.8364
 20
83.1451
 30
0.0
 10
464.8364
 20
83.1451
 30
0.0
 10
465.9583
 20
83.1451
 30
0.0
 10
465.9583
 20
83.1451
 30
0.0
  0
SPLINE
  5
F4
330
1F
100
AcDbEntity
  8
DEFPOINTS
370
    25
100
AcDbSpline
210
0.0
220
0.0
230
1.0
 70
    24
 71
     3
 72
     8
 73
     4
 74
     0
 42
0.0000000001
 43
0.0000000001
 40
0.0
 40
0.0
 40
0.0
 40
0.0
 40
1.0
 40
1.0
 40
1.0
 40
1.0
 10
466.5298
 20
83.1451
 30
0.0
 10
466.5298
 20
83.1451
 30
0.0
 10
467.6516
 20
83.1451
 30
0.0
 10
467.6516
 20
83.1451
 30
0.0
  0
SPLINE
  5
F5
330
1F
100
AcDbEntity
  8
DEFPOINTS
370
    25
100
AcDbSpline
210
0.0
220
0.0
230
1.0
 70
    24
 71
     3
 72
     8
 73
     4
 74
     0
 42
0.0000000001
 43
0.0000000001
 40
0.0
 40
0.0
 40
0.0
 40
0.0
 40
1.0
 40
1.0
 40
1.0
 40
1.0
 10
468.2019
 20
83.1451
 30
0.0
 10
468.2019
 20
83.1451
 30
0.0
 10
469.3238
 20
83.1451
 30
0.0
 10
469.3238
 20
83.1451
 30
0.0
  0
SPLINE
  5
F6
330
1F
100
AcDbEntity
  8
DEFPOINTS
370
    25
100
AcDbSpline
210
0.0
220
0.0
230
1.0
 70
    24
 71
     3
 72
     8
 73
     4
 74
     0
 42
0.0000000001
 43
0.0000000001
 40
0.0
 40
0.0
 40
0.0
 40
0.0
 40
1.0
 40
1.0
 40
1.0
 40
1.0
 10
469.8953
 20
83.1451
 30
0.0
 10
469.8953
 20
83.1451
 30
0.0
 10
471.0171
 20
83.1451
 30
0.0
 10
471.0171
 20
83.1451
 30
0.0
  0
SPLINE
  5
F7
330
1F
100
AcDbEntity
  8
DEFPOINTS
370
    25
100
AcDbSpline
210
0.0
220
0.0
230
1.0
 70
    24
 71
     3
 72
     8
 73
     4
 74
     0
 42
0.0000000001
 43
0.0000000001
 40
0.0
 40
0.0
 40
0.0
 40
0.0
 40
1.0
 40
1.0
 40
1.0
 40
1.0
 10
471.5886
 20
83.1451
 30
0.0
 10
471.5886
 20
83.1451
 30
0.0
 10
472.7104
 20
83.1451
 30
0.0
 10
472.7104
 20
83.1451
 30
0.0
  0
SPLINE
  5
F8
330
1F
100
AcDbEntity
  8
DEFPOINTS
370
    25
100
AcDbSpline
210
0.0
220
0.0
230
1.0
 70
    24
 71
     3
 72
     8
 73
     4
 74
     0
 42
0.0000000001
 43
0.0000000001
 40
0.0
 40
0.0
 40
0.0
 40
0.0
 40
1.0
 40
1.0
 40
1.0
 40
1.0
 10
473.2608
 20
83.1451
 30
0.0
 10
473.2608
 20
83.1451
 30
0.0
 10
474.3826
 20
83.1451
 30
0.0
 10
474.3826
 20
83.1451
 30
0.0
  0
SPLINE
  5
F9
330
1F
100
AcDbEntity
  8
DEFPOINTS
370
    25
100
AcDbSpline
210
0.0
220
0.0
230
1.0
 70
    24
 71
     3
 72
     8
 73
     4
 74
     0
 42
0.0000000001
 43
0.0000000001
 40
0.0
 40
0.0
 40
0.0
 40
0.0
 40
1.0
 40
1.0
 40
1.0
 40
1.0
 10
474.9541
 20
83.1451
 30
0.0
 10
474.9541
 20
83.1451
 30
0.0
 10
476.0759
 20
83.1451
 30
0.0
 10
476.0759
 20
83.1451
 30
0.0
  0
SPLINE
  5
FA
330
1F
100
AcDbEntity
  8
DEFPOINTS
370
    25
100
AcDbSpline
210
0.0
220
0.0
230
1.0
 70
    24
 71
     3
 72
     8
 73
     4
 74
     0
 42
0.0000000001
 43
0.0000000001
 40
0.0
 40
0.0
 40
0.0
 40
0.0
 40
1.0
 40
1.0
 40
1.0
 40
1.0
 10
476.6263
 20
83.1451
 30
0.0
 10
476.6263
 20
83.1451
 30
0.0
 10
477.7481
 20
83.1451
 30
0.0
 10
477.7481
 20
83.1451
 30
0.0
  0
SPLINE
  5
FB
330
1F
100
AcDbEntity
  8
DEFPOINTS
370
    25
100
AcDbSpline
210
0.0
220
0.0
230
1.0
 70
    24
 71
     3
 72
     8
 73
     4
 74
     0
 42
0.0000000001
 43
0.0000000001
 40
0.0
 40
0.0
 40
0.0
 40
0.0
 40
1.0
 40
1.0
 40
1.0
 40
1.0
 10
478.3196
 20
83.1451
 30
0.0
 10
478.3196
 20
83.1451
 30
0.0
 10
479.4414
 20
83.1451
 30
0.0
 10
479.4414
 20
83.1451
 30
0.0
  0
SPLINE
  5
FC
330
1F
100
AcDbEntity
  8
DEFPOINTS
370
    25
100
AcDbSpline
210
0.0
220
0.0
230
1.0
 70
    24
 71
     3
 72
     8
 73
     4
 74
     0
 42
0.0000000001
 43
0.0000000001
 40
0.0
 40
0.0
 40
0.0
 40
0.0
 40
1.0
 40
1.0
 40
1.0
 40
1.0
 10
479.9918
 20
83.1451
 30
0.0
 10
479.9918
 20
83.1451
 30
0.0
 10
481.1136
 20
83.1451
 30
0.0
 10
481.1136
 20
83.1451
 30
0.0
  0
SPLINE
  5
FD
330
1F
100
AcDbEntity
  8
DEFPOINTS
370
    25
100
AcDbSpline
210
0.0
220
0.0
230
1.0
 70
    24
 71
     3
 72
     8
 73
     4
 74
     0
 42
0.0000000001
 43
0.0000000001
 40
0.0
 40
0.0
 40
0.0
 40
0.0
 40
1.0
 40
1.0
 40
1.0
 40
1.0
 10
481.6851
 20
83.1451
 30
0.0
 10
481.6851
 20
83.1451
 30
0.0
 10
482.8069
 20
83.1451
 30
0.0
 10
482.8069
 20
83.1451
 30
0.0
  0
SPLINE
  5
FE
330
1F
100
AcDbEntity
  8
DEFPOINTS
370
    25
100
AcDbSpline
210
0.0
220
0.0
230
1.0
 70
    24
 71
     3
 72
     8
 73
     4
 74
     0
 42
0.0000000001
 43
0.0000000001
 40
0.0
 40
0.0
 40
0.0
 40
0.0
 40
1.0
 40
1.0
 40
1.0
 40
1.0
 10
483.3573
 20
83.1451
 30
0.0
 10
483.3573
 20
83.1451
 30
0.0
 10
484.4791
 20
83.1451
 30
0.0
 10
484.4791
 20
83.1451
 30
0.0
  0
SPLINE
  5
FF
330
1F
100
AcDbEntity
  8
DEFPOINTS
370
    25
100
AcDbSpline
210
0.0
220
0.0
230
1.0
 70
    24
 71
     3
 72
     8
 73
     4
 74
     0
 42
0.0000000001
 43
0.0000000001
 40
0.0
 40
0.0
 40
0.0
 40
0.0
 40
1.0
 40
1.0
 40
1.0
 40
1.0
 10
485.0506
 20
83.1451
 30
0.0
 10
485.0506
 20
83.1451
 30
0.0
 10
486.1724
 20
83.1451
 30
0.0
 10
486.1724
 20
83.1451
 30
0.0
  0
SPLINE
  5
100
330
1F
100
AcDbEntity
  8
DEFPOINTS
370
    25
100
AcDbSpline
210
0.0
220
0.0
230
1.0
 70
    24
 71
     3
 72
     8
 73
     4
 74
     0
 42
0.0000000001
 43
0.0000000001
 40
0.0
 40
0.0
 40
0.0
 40
0.0
 40
1.0
 40
1.0
 40
1.0
 40
1.0
 10
486.7228
 20
83.1451
 30
0.0
 10
486.7228
 20
83.1451
 30
0.0
 10
487.8446
 20
83.1451
 30
0.0
 10
487.8446
 20
83.1451
 30
0.0
  0
SPLINE
  5
101
330
1F
100
AcDbEntity
  8
DEFPOINTS
370
    25
100
AcDbSpline
210
0.0
220
0.0
230
1.0
 70
    24
 71
     3
 72
     8
 73
     4
 74
     0
 42
0.0000000001
 43
0.0000000001
 40
0.0
 40
0.0
 40
0.0
 40
0.0
 40
1.0
 40
1.0
 40
1.0
 40
1.0
 10
488.4161
 20
83.1451
 30
0.0
 10
488.4161
 20
83.1451
 30
0.0
 10
489.5379
 20
83.1451
 30
0.0
 10
489.5379
 20
83.1451
 30
0.0
  0
SPLINE
  5
102
330
1F
100
AcDbEntity
  8
DEFPOINTS
370
    25
100
AcDbSpline
210
0.0
220
0.0
230
1.0
 70
    24
 71
     3
 72
     8
 73
     4
 74
     0
 42
0.0000000001
 43
0.0000000001
 40
0.0
 40
0.0
 40
0.0
 40
0.0
 40
1.0
 40
1.0
 40
1.0
 40
1.0
 10
490.0883
 20
83.1451
 30
0.0
 10
490.0883
 20
83.1451
 30
0.0
 10
491.2101
 20
83.1451
 30
0.0
 10
491.2101
 20
83.1451
 30
0.0
  0
SPLINE
  5
103
330
1F
100
AcDbEntity
  8
DEFPOINTS
370
    25
100
AcDbSpline
210
0.0
220
0.0
230
1.0
 70
    24
 71
     3
 72
     8
 73
     4
 74
     0
 42
0.0000000001
 43
0.0000000001
 40
0.0
 40
0.0
 40
0.0
 40
0.0
 40
1.0
 40
1.0
 40
1.0
 40
1.0
 10
491.7816
 20
83.1451
 30
0.0
 10
491.7816
 20
83.1451
 30
0.0
 10
492.9034
 20
83.1451
 30
0.0
 10
492.9034
 20
83.1451
 30
0.0
  0
SPLINE
  5
104
330
1F
100
AcDbEntity
  8
DEFPOINTS
370
    25
100
AcDbSpline
210
0.0
220
0.0
230
1.0
 70
    24
 71
     3
 72
     8
 73
     4
 74
     0
 42
0.0000000001
 43
0.0000000001
 40
0.0
 40
0.0
 40
0.0
 40
0.0
 40
1.0
 40
1.0
 40
1.0
 40
1.0
 10
493.4538
 20
83.1451
 30
0.0
 10
493.4538
 20
83.1451
 30
0.0
 10
494.5756
 20
83.1451
 30
0.0
 10
494.5756
 20
83.1451
 30
0.0
  0
SPLINE
  5
105
330
1F
100
AcDbEntity
  8
DEFPOINTS
370
    25
100
AcDbSpline
210
0.0
220
0.0
230
1.0
 70
    24
 71
     3
 72
     8
 73
     4
 74
     0
 42
0.0000000001
 43
0.0000000001
 40
0.0
 40
0.0
 40
0.0
 40
0.0
 40
1.0
 40
1.0
 40
1.0
 40
1.0
 10
495.1471
 20
83.1451
 30
0.0
 10
495.1471
 20
83.1451
 30
0.0
 10
496.2689
 20
83.1451
 30
0.0
 10
496.2689
 20
83.1451
 30
0.0
  0
SPLINE
  5
106
330
1F
100
AcDbEntity
  8
DEFPOINTS
370
    25
100
AcDbSpline
210
0.0
220
0.0
230
1.0
 70
    24
 71
     3
 72
     8
 73
     4
 74
     0
 42
0.0000000001
 43
0.0000000001
 40
0.0
 40
0.0
 40
0.0
 40
0.0
 40
1.0
 40
1.0
 40
1.0
 40
1.0
 10
496.8404
 20
83.1451
 30
0.0
 10
496.8404
 20
83.1451
 30
0.0
 10
497.9623
 20
83.1451
 30
0.0
 10
497.9623
 20
83.1451
 30
0.0
  0
SPLINE
  5
107
330
1F
100
AcDbEntity
  8
DEFPOINTS
370
    25
100
AcDbSpline
210
0.0
220
0.0
230
1.0
 70
    24
 71
     3
 72
     8
 73
     4
 74
     0
 42
0.0000000001
 43
0.0000000001
 40
0.0
 40
0.0
 40
0.0
 40
0.0
 40
1.0
 40
1.0
 40
1.0
 40
1.0
 10
498.5126
 20
83.1451
 30
0.0
 10
498.5126
 20
83.1451
 30
0.0
 10
499.6344
 20
83.1451
 30
0.0
 10
499.6344
 20
83.1451
 30
0.0
  0
SPLINE
  5
108
330
1F
100
AcDbEntity
  8
DEFPOINTS
370
    25
100
AcDbSpline
210
0.0
220
0.0
230
1.0
 70
    24
 71
     3
 72
     8
 73
     4
 74
     0
 42
0.0000000001
 43
0.0000000001
 40
0.0
 40
0.0
 40
0.0
 40
0.0
 40
1.0
 40
1.0
 40
1.0
 40
1.0
 10
500.2059
 20
83.1451
 30
0.0
 10
500.2059
 20
83.1451
 30
0.0
 10
501.3278
 20
83.1451
 30
0.0
 10
501.3278
 20
83.1451
 30
0.0
  0
SPLINE
  5
109
330
1F
100
AcDbEntity
  8
DEFPOINTS
370
    25
100
AcDbSpline
210
0.0
220
0.0
230
1.0
 70
    24
 71
     3
 72
     8
 73
     4
 74
     0
 42
0.0000000001
 43
0.0000000001
 40
0.0
 40
0.0
 40
0.0
 40
0.0
 40
1.0
 40
1.0
 40
1.0
 40
1.0
 10
501.8781
 20
83.1451
 30
0.0
 10
501.8781
 20
83.1451
 30
0.0
 10
502.9999
 20
83.1451
 30
0.0
 10
502.9999
 20
83.1451
 30
0.0
  0
SPLINE
  5
10A
330
1F
100
AcDbEntity
  8
DEFPOINTS
370
    25
100
AcDbSpline
210
0.0
220
0.0
230
1.0
 70
    24
 71
     3
 72
     8
 73
     4
 74
     0
 42
0.0000000001
 43
0.0000000001
 40
0.0
 40
0.0
 40
0.0
 40
0.0
 40
1.0
 40
1.0
 40
1.0
 40
1.0
 10
503.5714
 20
83.1451
 30
0.0
 10
503.5714
 20
83.1451
 30
0.0
 10
504.6933
 20
83.1451
 30
0.0
 10
504.6933
 20
83.1451
 30
0.0
  0
SPLINE
  5
10B
330
1F
100
AcDbEntity
  8
DEFPOINTS
370
    25
100
AcDbSpline
210
0.0
220
0.0
230
1.0
 70
    24
 71
     3
 72
     8
 73
     4
 74
     0
 42
0.0000000001
 43
0.0000000001
 40
0.0
 40
0.0
 40
0.0
 40
0.0
 40
1.0
 40
1.0
 40
1.0
 40
1.0
 10
505.2436
 20
83.1451
 30
0.0
 10
505.2436
 20
83.1451
 30
0.0
 10
506.3654
 20
83.1451
 30
0.0
 10
506.3654
 20
83.1451
 30
0.0
  0
SPLINE
  5
10C
330
1F
100
AcDbEntity
  8
DEFPOINTS
370
    25
100
AcDbSpline
210
0.0
220
0.0
230
1.0
 70
    24
 71
     3
 72
     8
 73
     4
 74
     0
 42
0.0000000001
 43
0.0000000001
 40
0.0
 40
0.0
 40
0.0
 40
0.0
 40
1.0
 40
1.0
 40
1.0
 40
1.0
 10
506.9369
 20
83.1451
 30
0.0
 10
506.9369
 20
83.1451
 30
0.0
 10
508.0588
 20
83.1451
 30
0.0
 10
508.0588
 20
83.1451
 30
0.0
  0
SPLINE
  5
10D
330
1F
100
AcDbEntity
  8
DEFPOINTS
370
    25
100
AcDbSpline
210
0.0
220
0.0
230
1.0
 70
    24
 71
     3
 72
     8
 73
     4
 74
     0
 42
0.0000000001
 43
0.0000000001
 40
0.0
 40
0.0
 40
0.0
 40
0.0
 40
1.0
 40
1.0
 40
1.0
 40
1.0
 10
508.6091
 20
83.1451
 30
0.0
 10
508.6091
 20
83.1451
 30
0.0
 10
509.7309
 20
83.1451
 30
0.0
 10
509.7309
 20
83.1451
 30
0.0
  0
SPLINE
  5
10E
330
1F
100
AcDbEntity
  8
DEFPOINTS
370
    25
100
AcDbSpline
210
0.0
220
0.0
230
1.0
 70
    24
 71
     3
 72
     8
 73
     4
 74
     0
 42
0.0000000001
 43
0.0000000001
 40
0.0
 40
0.0
 40
0.0
 40
0.0
 40
1.0
 40
1.0
 40
1.0
 40
1.0
 10
510.3024
 20
83.1451
 30
0.0
 10
510.3024
 20
83.1451
 30
0.0
 10
511.4243
 20
83.1451
 30
0.0
 10
511.4243
 20
83.1451
 30
0.0
  0
SPLINE
  5
10F
330
1F
100
AcDbEntity
  8
DEFPOINTS
370
    25
100
AcDbSpline
210
0.0
220
0.0
230
1.0
 70
    24
 71
     3
 72
     8
 73
     4
 74
     0
 42
0.0000000001
 43
0.0000000001
 40
0.0
 40
0.0
 40
0.0
 40
0.0
 40
1.0
 40
1.0
 40
1.0
 40
1.0
 10
511.9746
 20
83.1451
 30
0.0
 10
511.9746
 20
83.1451
 30
0.0
 10
513.0964
 20
83.1451
 30
0.0
 10
513.0964
 20
83.1451
 30
0.0
  0
SPLINE
  5
110
330
1F
100
AcDbEntity
  8
DEFPOINTS
370
    25
100
AcDbSpline
210
0.0
220
0.0
230
1.0
 70
    24
 71
     3
 72
     8
 73
     4
 74
     0
 42
0.0000000001
 43
0.0000000001
 40
0.0
 40
0.0
 40
0.0
 40
0.0
 40
1.0
 40
1.0
 40
1.0
 40
1.0
 10
513.6679
 20
83.1451
 30
0.0
 10
513.6679
 20
83.1451
 30
0.0
 10
514.7898
 20
83.1451
 30
0.0
 10
514.7898
 20
83.1451
 30
0.0
  0
SPLINE
  5
111
330
1F
100
AcDbEntity
  8
DEFPOINTS
370
    25
100
AcDbSpline
210
0.0
220
0.0
230
1.0
 70
    24
 71
     3
 72
     8
 73
     4
 74
     0
 42
0.0000000001
 43
0.0000000001
 40
0.0
 40
0.0
 40
0.0
 40
0.0
 40
1.0
 40
1.0
 40
1.0
 40
1.0
 10
515.3401
 20
83.1451
 30
0.0
 10
515.3401
 20
83.1451
 30
0.0
 10
516.4619
 20
83.1451
 30
0.0
 10
516.4619
 20
83.1451
 30
0.0
  0
SPLINE
  5
112
330
1F
100
AcDbEntity
  8
DEFPOINTS
370
    25
100
AcDbSpline
210
0.0
220
0.0
230
1.0
 70
    24
 71
     3
 72
     8
 73
     4
 74
     0
 42
0.0000000001
 43
0.0000000001
 40
0.0
 40
0.0
 40
0.0
 40
0.0
 40
1.0
 40
1.0
 40
1.0
 40
1.0
 10
517.0334
 20
83.1451
 30
0.0
 10
517.0334
 20
83.1451
 30
0.0
 10
518.1553
 20
83.1451
 30
0.0
 10
518.1553
 20
83.1451
 30
0.0
  0
SPLINE
  5
113
330
1F
100
AcDbEntity
  8
DEFPOINTS
370
    25
100
AcDbSpline
210
0.0
220
0.0
230
1.0
 70
    24
 71
     3
 72
     8
 73
     4
 74
     0
 42
0.0000000001
 43
0.0000000001
 40
0.0
 40
0.0
 40
0.0
 40
0.0
 40
1.0
 40
1.0
 40
1.0
 40
1.0
 10
518.7056
 20
83.1451
 30
0.0
 10
518.7056
 20
83.1451
 30
0.0
 10
519.8274
 20
83.1451
 30
0.0
 10
519.8274
 20
83.1451
 30
0.0
  0
SPLINE
  5
114
330
1F
100
AcDbEntity
  8
DEFPOINTS
370
    25
100
AcDbSpline
210
0.0
220
0.0
230
1.0
 70
    24
 71
     3
 72
     8
 73
     4
 74
     0
 42
0.0000000001
 43
0.0000000001
 40
0.0
 40
0.0
 40
0.0
 40
0.0
 40
1.0
 40
1.0
 40
1.0
 40
1.0
 10
520.3989
 20
83.1451
 30
0.0
 10
520.3989
 20
83.1451
 30
0.0
 10
521.5208
 20
83.1451
 30
0.0
 10
521.5208
 20
83.1451
 30
0.0
  0
SPLINE
  5
115
330
1F
100
AcDbEntity
  8
DEFPOINTS
370
    25
100
AcDbSpline
210
0.0
220
0.0
230
1.0
 70
    24
 71
     3
 72
     8
 73
     4
 74
     0
 42
0.0000000001
 43
0.0000000001
 40
0.0
 40
0.0
 40
0.0
 40
0.0
 40
1.0
 40
1.0
 40
1.0
 40
1.0
 10
522.0711
 20
83.1451
 30
0.0
 10
522.0711
 20
83.1451
 30
0.0
 10
523.2141
 20
83.1451
 30
0.0
 10
523.2141
 20
83.1451
 30
0.0
  0
SPLINE
  5
116
330
1F
100
AcDbEntity
  8
DEFPOINTS
370
    25
100
AcDbSpline
210
0.0
220
0.0
230
1.0
 70
    24
 71
     3
 72
     8
 73
     4
 74
     0
 42
0.0000000001
 43
0.0000000001
 40
0.0
 40
0.0
 40
0.0
 40
0.0
 40
1.0
 40
1.0
 40
1.0
 40
1.0
 10
523.7644
 20
83.1451
 30
0.0
 10
523.7644
 20
83.1451
 30
0.0
 10
524.8863
 20
83.1451
 30
0.0
 10
524.8863
 20
83.1451
 30
0.0
  0
SPLINE
  5
117
330
1F
100
AcDbEntity
  8
DEFPOINTS
370
    25
100
AcDbSpline
210
0.0
220
0.0
230
1.0
 70
    24
 71
     3
 72
     8
 73
     4
 74
     0
 42
0.0000000001
 43
0.0000000001
 40
0.0
 40
0.0
 40
0.0
 40
0.0
 40
1.0
 40
1.0
 40
1.0
 40
1.0
 10
525.4578
 20
83.1451
 30
0.0
 10
525.4578
 20
83.1451
 30
0.0
 10
526.5796
 20
83.1451
 30
0.0
 10
526.5796
 20
83.1451
 30
0.0
  0
SPLINE
  5
118
330
1F
100
AcDbEntity
  8
DEFPOINTS
370
    25
100
AcDbSpline
210
0.0
220
0.0
230
1.0
 70
    24
 71
     3
 72
     8
 73
     4
 74
     0
 42
0.0000000001
 43
0.0000000001
 40
0.0
 40
0.0
 40
0.0
 40
0.0
 40
1.0
 40
1.0
 40
1.0
 40
1.0
 10
527.1299
 20
83.1451
 30
0.0
 10
527.1299
 20
83.1451
 30
0.0
 10
528.2518
 20
83.1451
 30
0.0
 10
528.2518
 20
83.1451
 30
0.0
  0
SPLINE
  5
119
330
1F
100
AcDbEntity
  8
DEFPOINTS
370
    25
100
AcDbSpline
210
0.0
220
0.0
230
1.0
 70
    24
 71
     3
 72
     8
 73
     4
 74
     0
 42
0.0000000001
 43
0.0000000001
 40
0.0
 40
0.0
 40
0.0
 40
0.0
 40
1.0
 40
1.0
 40
1.0
 40
1.0
 10
528.8233
 20
83.1451
 30
0.0
 10
528.8233
 20
83.1451
 30
0.0
 10
529.9451
 20
83.1451
 30
0.0
 10
529.9451
 20
83.1451
 30
0.0
  0
SPLINE
  5
11A
330
1F
100
AcDbEntity
  8
DEFPOINTS
370
    25
100
AcDbSpline
210
0.0
220
0.0
230
1.0
 70
    24
 71
     3
 72
     8
 73
     4
 74
     0
 42
0.0000000001
 43
0.0000000001
 40
0.0
 40
0.0
 40
0.0
 40
0.0
 40
1.0
 40
1.0
 40
1.0
 40
1.0
 10
530.4954
 20
83.1451
 30
0.0
 10
530.4954
 20
83.1451
 30
0.0
 10
531.6173
 20
83.1451
 30
0.0
 10
531.6173
 20
83.1451
 30
0.0
  0
SPLINE
  5
11B
330
1F
100
AcDbEntity
  8
DEFPOINTS
370
    25
100
AcDbSpline
210
0.0
220
0.0
230
1.0
 70
    24
 71
     3
 72
     8
 73
     4
 74
     0
 42
0.0000000001
 43
0.0000000001
 40
0.0
 40
0.0
 40
0.0
 40
0.0
 40
1.0
 40
1.0
 40
1.0
 40
1.0
 10
532.1888
 20
83.1451
 30
0.0
 10
532.1888
 20
83.1451
 30
0.0
 10
533.3106
 20
83.1451
 30
0.0
 10
533.3106
 20
83.1451
 30
0.0
  0
SPLINE
  5
11C
330
1F
100
AcDbEntity
  8
DEFPOINTS
370
    25
100
AcDbSpline
210
0.0
220
0.0
230
1.0
 70
    24
 71
     3
 72
     8
 73
     4
 74
     0
 42
0.0000000001
 43
0.0000000001
 40
0.0
 40
0.0
 40
0.0
 40
0.0
 40
1.0
 40
1.0
 40
1.0
 40
1.0
 10
533.8609
 20
83.1451
 30
0.0
 10
533.8609
 20
83.1451
 30
0.0
 10
534.9828
 20
83.1451
 30
0.0
 10
534.9828
 20
83.1451
 30
0.0
  0
SPLINE
  5
11D
330
1F
100
AcDbEntity
  8
DEFPOINTS
370
    25
100
AcDbSpline
210
0.0
220
0.0
230
1.0
 70
    24
 71
     3
 72
     8
 73
     4
 74
     0
 42
0.0000000001
 43
0.0000000001
 40
0.0
 40
0.0
 40
0.0
 40
0.0
 40
1.0
 40
1.0
 40
1.0
 40
1.0
 10
535.5543
 20
83.1451
 30
0.0
 10
535.5543
 20
83.1451
 30
0.0
 10
536.6761
 20
83.1451
 30
0.0
 10
536.6761
 20
83.1451
 30
0.0
  0
SPLINE
  5
11E
330
1F
100
AcDbEntity
  8
DEFPOINTS
370
    25
100
AcDbSpline
210
0.0
220
0.0
230
1.0
 70
    24
 71
     3
 72
     8
 73
     4
 74
     0
 42
0.0000000001
 43
0.0000000001
 40
0.0
 40
0.0
 40
0.0
 40
0.0
 40
1.0
 40
1.0
 40
1.0
 40
1.0
 10
537.2264
 20
83.1451
 30
0.0
 10
537.2264
 20
83.1451
 30
0.0
 10
538.3483
 20
83.1451
 30
0.0
 10
538.3483
 20
83.1451
 30
0.0
  0
SPLINE
  5
11F
330
1F
100
AcDbEntity
  8
DEFPOINTS
370
    25
100
AcDbSpline
210
0.0
220
0.0
230
1.0
 70
    24
 71
     3
 72
     8
 73
     4
 74
     0
 42
0.0000000001
 43
0.0000000001
 40
0.0
 40
0.0
 40
0.0
 40
0.0
 40
1.0
 40
1.0
 40
1.0
 40
1.0
 10
538.9198
 20
83.1451
 30
0.0
 10
538.9198
 20
83.1451
 30
0.0
 10
540.0416
 20
83.1451
 30
0.0
 10
540.0416
 20
83.1451
 30
0.0
  0
SPLINE
  5
120
330
1F
100
AcDbEntity
  8
DEFPOINTS
370
    25
100
AcDbSpline
210
0.0
220
0.0
230
1.0
 70
    24
 71
     3
 72
     8
 73
     4
 74
     0
 42
0.0000000001
 43
0.0000000001
 40
0.0
 40
0.0
 40
0.0
 40
0.0
 40
1.0
 40
1.0
 40
1.0
 40
1.0
 10
540.5919
 20
83.1451
 30
0.0
 10
540.5919
 20
83.1451
 30
0.0
 10
541.7138
 20
83.1451
 30
0.0
 10
541.7138
 20
83.1451
 30
0.0
  0
SPLINE
  5
121
330
1F
100
AcDbEntity
  8
DEFPOINTS
370
    25
100
AcDbSpline
210
0.0
220
0.0
230
1.0
 70
    24
 71
     3
 72
     8
 73
     4
 74
     0
 42
0.0000000001
 43
0.0000000001
 40
0.0
 40
0.0
 40
0.0
 40
0.0
 40
1.0
 40
1.0
 40
1.0
 40
1.0
 10
542.2853
 20
83.1451
 30
0.0
 10
542.2853
 20
83.1451
 30
0.0
 10
543.4071
 20
83.1451
 30
0.0
 10
543.4071
 20
83.1451
 30
0.0
  0
SPLINE
  5
122
330
1F
100
AcDbEntity
  8
DEFPOINTS
370
    25
100
AcDbSpline
210
0.0
220
0.0
230
1.0
 70
    24
 71
     3
 72
     8
 73
     4
 74
     0
 42
0.0000000001
 43
0.0000000001
 40
0.0
 40
0.0
 40
0.0
 40
0.0
 40
1.0
 40
1.0
 40
1.0
 40
1.0
 10
543.9574
 20
83.1451
 30
0.0
 10
543.9574
 20
83.1451
 30
0.0
 10
545.0793
 20
83.1451
 30
0.0
 10
545.0793
 20
83.1451
 30
0.0
  0
SPLINE
  5
123
330
1F
100
AcDbEntity
  8
DEFPOINTS
370
    25
100
AcDbSpline
210
0.0
220
0.0
230
1.0
 70
    24
 71
     3
 72
     8
 73
     4
 74
     0
 42
0.0000000001
 43
0.0000000001
 40
0.0
 40
0.0
 40
0.0
 40
0.0
 40
1.0
 40
1.0
 40
1.0
 40
1.0
 10
545.6508
 20
83.1451
 30
0.0
 10
545.6508
 20
83.1451
 30
0.0
 10
546.7726
 20
83.1451
 30
0.0
 10
546.7726
 20
83.1451
 30
0.0
  0
SPLINE
  5
124
330
1F
100
AcDbEntity
  8
DEFPOINTS
370
    25
100
AcDbSpline
210
0.0
220
0.0
230
1.0
 70
    24
 71
     3
 72
     8
 73
     4
 74
     0
 42
0.0000000001
 43
0.0000000001
 40
0.0
 40
0.0
 40
0.0
 40
0.0
 40
1.0
 40
1.0
 40
1.0
 40
1.0
 10
547.3229
 20
83.1451
 30
0.0
 10
547.3229
 20
83.1451
 30
0.0
 10
548.4448
 20
83.1451
 30
0.0
 10
548.4448
 20
83.1451
 30
0.0
  0
SPLINE
  5
125
330
1F
100
AcDbEntity
  8
DEFPOINTS
370
    25
100
AcDbSpline
210
0.0
220
0.0
230
1.0
 70
    24
 71
     3
 72
     8
 73
     4
 74
     0
 42
0.0000000001
 43
0.0000000001
 40
0.0
 40
0.0
 40
0.0
 40
0.0
 40
1.0
 40
1.0
 40
1.0
 40
1.0
 10
549.0163
 20
83.1451
 30
0.0
 10
549.0163
 20
83.1451
 30
0.0
 10
550.1381
 20
83.1451
 30
0.0
 10
550.1381
 20
83.1451
 30
0.0
  0
SPLINE
  5
126
330
1F
100
AcDbEntity
  8
DEFPOINTS
370
    25
100
AcDbSpline
210
0.0
220
0.0
230
1.0
 70
    24
 71
     3
 72
     8
 73
     4
 74
     0
 42
0.0000000001
 43
0.0000000001
 40
0.0
 40
0.0
 40
0.0
 40
0.0
 40
1.0
 40
1.0
 40
1.0
 40
1.0
 10
550.7096
 20
83.1451
 30
0.0
 10
550.7096
 20
83.1451
 30
0.0
 10
551.8314
 20
83.1451
 30
0.0
 10
551.8314
 20
83.1451
 30
0.0
  0
SPLINE
  5
127
330
1F
100
AcDbEntity
  8
DEFPOINTS
370
    25
100
AcDbSpline
210
0.0
220
0.0
230
1.0
 70
    24
 71
     3
 72
     8
 73
     4
 74
     0
 42
0.0000000001
 43
0.0000000001
 40
0.0
 40
0.0
 40
0.0
 40
0.0
 40
1.0
 40
1.0
 40
1.0
 40
1.0
 10
552.3818
 20
83.1451
 30
0.0
 10
552.3818
 20
83.1451
 30
0.0
 10
553.5036
 20
83.1451
 30
0.0
 10
553.5036
 20
83.1451
 30
0.0
  0
SPLINE
  5
128
330
1F
100
AcDbEntity
  8
DEFPOINTS
370
    25
100
AcDbSpline
210
0.0
220
0.0
230
1.0
 70
    24
 71
     3
 72
     8
 73
     4
 74
     0
 42
0.0000000001
 43
0.0000000001
 40
0.0
 40
0.0
 40
0.0
 40
0.0
 40
1.0
 40
1.0
 40
1.0
 40
1.0
 10
554.0751
 20
83.1451
 30
0.0
 10
554.0751
 20
83.1451
 30
0.0
 10
554.9006
 20
83.1451
 30
0.0
 10
554.9006
 20
83.1451
 30
0.0
  0
SPLINE
  5
129
330
1F
100
AcDbEntity
  8
DEFPOINTS
370
    25
100
AcDbSpline
210
0.0
220
0.0
230
1.0
 70
    24
 71
     3
 72
     8
 73
     4
 74
     0
 42
0.0000000001
 43
0.0000000001
 40
0.0
 40
0.0
 40
0.0
 40
0.0
 40
1.0
 40
1.0
 40
1.0
 40
1.0
 10
435.9439
 20
12.3638
 30
0.0
 10
435.9439
 20
12.3638
 30
0.0
 10
435.9439
 20
13.5068
 30
0.0
 10
435.9439
 20
13.5068
 30
0.0
  0
SPLINE
  5
12A
330
1F
100
AcDbEntity
  8
DEFPOINTS
370
    25
100
AcDbSpline
210
0.0
220
0.0
230
1.0
 70
    24
 71
     3
 72
     8
 73
     4
 74
     0
 42
0.0000000001
 43
0.0000000001
 40
0.0
 40
0.0
 40
0.0
 40
0.0
 40
1.0
 40
1.0
 40
1.0
 40
1.0
 10
435.9439
 20
14.0783
 30
0.0
 10
435.9439
 20
14.0783
 30
0.0
 10
435.9439
 20
15.2001
 30
0.0
 10
435.9439
 20
15.2001
 30
0.0
  0
SPLINE
  5
12B
330
1F
100
AcDbEntity
  8
DEFPOINTS
370
    25
100
AcDbSpline
210
0.0
220
0.0
230
1.0
 70
    24
 71
     3
 72
     8
 73
     4
 74
     0
 42
0.0000000001
 43
0.0000000001
 40
0.0
 40
0.0
 40
0.0
 40
0.0
 40
1.0
 40
1.0
 40
1.0
 40
1.0
 10
435.9439
 20
15.7505
 30
0.0
 10
435.9439
 20
15.7505
 30
0.0
 10
435.9439
 20
16.8723
 30
0.0
 10
435.9439
 20
16.8723
 30
0.0
  0
SPLINE
  5
12C
330
1F
100
AcDbEntity
  8
DEFPOINTS
370
    25
100
AcDbSpline
210
0.0
220
0.0
230
1.0
 70
    24
 71
     3
 72
     8
 73
     4
 74
     0
 42
0.0000000001
 43
0.0000000001
 40
0.0
 40
0.0
 40
0.0
 40
0.0
 40
1.0
 40
1.0
 40
1.0
 40
1.0
 10
435.9439
 20
17.4438
 30
0.0
 10
435.9439
 20
17.4438
 30
0.0
 10
435.9439
 20
18.5656
 30
0.0
 10
435.9439
 20
18.5656
 30
0.0
  0
SPLINE
  5
12D
330
1F
100
AcDbEntity
  8
DEFPOINTS
370
    25
100
AcDbSpline
210
0.0
220
0.0
230
1.0
 70
    24
 71
     3
 72
     8
 73
     4
 74
     0
 42
0.0000000001
 43
0.0000000001
 40
0.0
 40
0.0
 40
0.0
 40
0.0
 40
1.0
 40
1.0
 40
1.0
 40
1.0
 10
435.9439
 20
19.116
 30
0.0
 10
435.9439
 20
19.116
 30
0.0
 10
435.9439
 20
20.2378
 30
0.0
 10
435.9439
 20
20.2378
 30
0.0
  0
SPLINE
  5
12E
330
1F
100
AcDbEntity
  8
DEFPOINTS
370
    25
100
AcDbSpline
210
0.0
220
0.0
230
1.0
 70
    24
 71
     3
 72
     8
 73
     4
 74
     0
 42
0.0000000001
 43
0.0000000001
 40
0.0
 40
0.0
 40
0.0
 40
0.0
 40
1.0
 40
1.0
 40
1.0
 40
1.0
 10
435.9439
 20
20.8093
 30
0.0
 10
435.9439
 20
20.8093
 30
0.0
 10
435.9439
 20
21.9311
 30
0.0
 10
435.9439
 20
21.9311
 30
0.0
  0
SPLINE
  5
12F
330
1F
100
AcDbEntity
  8
DEFPOINTS
370
    25
100
AcDbSpline
210
0.0
220
0.0
230
1.0
 70
    24
 71
     3
 72
     8
 73
     4
 74
     0
 42
0.0000000001
 43
0.0000000001
 40
0.0
 40
0.0
 40
0.0
 40
0.0
 40
1.0
 40
1.0
 40
1.0
 40
1.0
 10
435.9439
 20
22.5026
 30
0.0
 10
435.9439
 20
22.5026
 30
0.0
 10
435.9439
 20
23.6245
 30
0.0
 10
435.9439
 20
23.6245
 30
0.0
  0
SPLINE
  5
130
330
1F
100
AcDbEntity
  8
DEFPOINTS
370
    25
100
AcDbSpline
210
0.0
220
0.0
230
1.0
 70
    24
 71
     3
 72
     8
 73
     4
 74
     0
 42
0.0000000001
 43
0.0000000001
 40
0.0
 40
0.0
 40
0.0
 40
0.0
 40
1.0
 40
1.0
 40
1.0
 40
1.0
 10
435.9439
 20
24.1748
 30
0.0
 10
435.9439
 20
24.1748
 30
0.0
 10
435.9439
 20
25.2966
 30
0.0
 10
435.9439
 20
25.2966
 30
0.0
  0
SPLINE
  5
131
330
1F
100
AcDbEntity
  8
DEFPOINTS
370
    25
100
AcDbSpline
210
0.0
220
0.0
230
1.0
 70
    24
 71
     3
 72
     8
 73
     4
 74
     0
 42
0.0000000001
 43
0.0000000001
 40
0.0
 40
0.0
 40
0.0
 40
0.0
 40
1.0
 40
1.0
 40
1.0
 40
1.0
 10
435.9439
 20
25.8681
 30
0.0
 10
435.9439
 20
25.8681
 30
0.0
 10
435.9439
 20
26.99
 30
0.0
 10
435.9439
 20
26.99
 30
0.0
  0
SPLINE
  5
132
330
1F
100
AcDbEntity
  8
DEFPOINTS
370
    25
100
AcDbSpline
210
0.0
220
0.0
230
1.0
 70
    24
 71
     3
 72
     8
 73
     4
 74
     0
 42
0.0000000001
 43
0.0000000001
 40
0.0
 40
0.0
 40
0.0
 40
0.0
 40
1.0
 40
1.0
 40
1.0
 40
1.0
 10
435.9439
 20
27.5403
 30
0.0
 10
435.9439
 20
27.5403
 30
0.0
 10
435.9439
 20
28.6621
 30
0.0
 10
435.9439
 20
28.6621
 30
0.0
  0
SPLINE
  5
133
330
1F
100
AcDbEntity
  8
DEFPOINTS
370
    25
100
AcDbSpline
210
0.0
220
0.0
230
1.0
 70
    24
 71
     3
 72
     8
 73
     4
 74
     0
 42
0.0000000001
 43
0.0000000001
 40
0.0
 40
0.0
 40
0.0
 40
0.0
 40
1.0
 40
1.0
 40
1.0
 40
1.0
 10
435.9439
 20
29.2336
 30
0.0
 10
435.9439
 20
29.2336
 30
0.0
 10
435.9439
 20
30.3555
 30
0.0
 10
435.9439
 20
30.3555
 30
0.0
  0
SPLINE
  5
134
330
1F
100
AcDbEntity
  8
DEFPOINTS
370
    25
100
AcDbSpline
210
0.0
220
0.0
230
1.0
 70
    24
 71
     3
 72
     8
 73
     4
 74
     0
 42
0.0000000001
 43
0.0000000001
 40
0.0
 40
0.0
 40
0.0
 40
0.0
 40
1.0
 40
1.0
 40
1.0
 40
1.0
 10
435.9439
 20
30.9058
 30
0.0
 10
435.9439
 20
30.9058
 30
0.0
 10
435.9439
 20
32.0276
 30
0.0
 10
435.9439
 20
32.0276
 30
0.0
  0
SPLINE
  5
135
330
1F
100
AcDbEntity
  8
DEFPOINTS
370
    25
100
AcDbSpline
210
0.0
220
0.0
230
1.0
 70
    24
 71
     3
 72
     8
 73
     4
 74
     0
 42
0.0000000001
 43
0.0000000001
 40
0.0
 40
0.0
 40
0.0
 40
0.0
 40
1.0
 40
1.0
 40
1.0
 40
1.0
 10
435.9439
 20
32.5991
 30
0.0
 10
435.9439
 20
32.5991
 30
0.0
 10
435.9439
 20
33.721
 30
0.0
 10
435.9439
 20
33.721
 30
0.0
  0
SPLINE
  5
136
330
1F
100
AcDbEntity
  8
DEFPOINTS
370
    25
100
AcDbSpline
210
0.0
220
0.0
230
1.0
 70
    24
 71
     3
 72
     8
 73
     4
 74
     0
 42
0.0000000001
 43
0.0000000001
 40
0.0
 40
0.0
 40
0.0
 40
0.0
 40
1.0
 40
1.0
 40
1.0
 40
1.0
 10
435.9439
 20
34.2713
 30
0.0
 10
435.9439
 20
34.2713
 30
0.0
 10
435.9439
 20
35.3931
 30
0.0
 10
435.9439
 20
35.3931
 30
0.0
  0
SPLINE
  5
137
330
1F
100
AcDbEntity
  8
DEFPOINTS
370
    25
100
AcDbSpline
210
0.0
220
0.0
230
1.0
 70
    24
 71
     3
 72
     8
 73
     4
 74
     0
 42
0.0000000001
 43
0.0000000001
 40
0.0
 40
0.0
 40
0.0
 40
0.0
 40
1.0
 40
1.0
 40
1.0
 40
1.0
 10
435.9439
 20
35.9646
 30
0.0
 10
435.9439
 20
35.9646
 30
0.0
 10
435.9439
 20
37.0865
 30
0.0
 10
435.9439
 20
37.0865
 30
0.0
  0
SPLINE
  5
138
330
1F
100
AcDbEntity
  8
DEFPOINTS
370
    25
100
AcDbSpline
210
0.0
220
0.0
230
1.0
 70
    24
 71
     3
 72
     8
 73
     4
 74
     0
 42
0.0000000001
 43
0.0000000001
 40
0.0
 40
0.0
 40
0.0
 40
0.0
 40
1.0
 40
1.0
 40
1.0
 40
1.0
 10
435.9439
 20
37.6368
 30
0.0
 10
435.9439
 20
37.6368
 30
0.0
 10
435.9439
 20
38.7586
 30
0.0
 10
435.9439
 20
38.7586
 30
0.0
  0
SPLINE
  5
139
330
1F
100
AcDbEntity
  8
DEFPOINTS
370
    25
100
AcDbSpline
210
0.0
220
0.0
230
1.0
 70
    24
 71
     3
 72
     8
 73
     4
 74
     0
 42
0.0000000001
 43
0.0000000001
 40
0.0
 40
0.0
 40
0.0
 40
0.0
 40
1.0
 40
1.0
 40
1.0
 40
1.0
 10
435.9439
 20
39.3301
 30
0.0
 10
435.9439
 20
39.3301
 30
0.0
 10
435.9439
 20
40.452
 30
0.0
 10
435.9439
 20
40.452
 30
0.0
  0
SPLINE
  5
13A
330
1F
100
AcDbEntity
  8
DEFPOINTS
370
    25
100
AcDbSpline
210
0.0
220
0.0
230
1.0
 70
    24
 71
     3
 72
     8
 73
     4
 74
     0
 42
0.0000000001
 43
0.0000000001
 40
0.0
 40
0.0
 40
0.0
 40
0.0
 40
1.0
 40
1.0
 40
1.0
 40
1.0
 10
435.9439
 20
41.0023
 30
0.0
 10
435.9439
 20
41.0023
 30
0.0
 10
435.9439
 20
42.1241
 30
0.0
 10
435.9439
 20
42.1241
 30
0.0
  0
SPLINE
  5
13B
330
1F
100
AcDbEntity
  8
DEFPOINTS
370
    25
100
AcDbSpline
210
0.0
220
0.0
230
1.0
 70
    24
 71
     3
 72
     8
 73
     4
 74
     0
 42
0.0000000001
 43
0.0000000001
 40
0.0
 40
0.0
 40
0.0
 40
0.0
 40
1.0
 40
1.0
 40
1.0
 40
1.0
 10
435.9439
 20
42.6956
 30
0.0
 10
435.9439
 20
42.6956
 30
0.0
 10
435.9439
 20
43.8175
 30
0.0
 10
435.9439
 20
43.8175
 30
0.0
  0
SPLINE
  5
13C
330
1F
100
AcDbEntity
  8
DEFPOINTS
370
    25
100
AcDbSpline
210
0.0
220
0.0
230
1.0
 70
    24
 71
     3
 72
     8
 73
     4
 74
     0
 42
0.0000000001
 43
0.0000000001
 40
0.0
 40
0.0
 40
0.0
 40
0.0
 40
1.0
 40
1.0
 40
1.0
 40
1.0
 10
435.9439
 20
44.389
 30
0.0
 10
435.9439
 20
44.389
 30
0.0
 10
435.9439
 20
45.5108
 30
0.0
 10
435.9439
 20
45.5108
 30
0.0
  0
SPLINE
  5
13D
330
1F
100
AcDbEntity
  8
DEFPOINTS
370
    25
100
AcDbSpline
210
0.0
220
0.0
230
1.0
 70
    24
 71
     3
 72
     8
 73
     4
 74
     0
 42
0.0000000001
 43
0.0000000001
 40
0.0
 40
0.0
 40
0.0
 40
0.0
 40
1.0
 40
1.0
 40
1.0
 40
1.0
 10
435.9439
 20
46.0611
 30
0.0
 10
435.9439
 20
46.0611
 30
0.0
 10
435.9439
 20
47.183
 30
0.0
 10
435.9439
 20
47.183
 30
0.0
  0
SPLINE
  5
13E
330
1F
100
AcDbEntity
  8
DEFPOINTS
370
    25
100
AcDbSpline
210
0.0
220
0.0
230
1.0
 70
    24
 71
     3
 72
     8
 73
     4
 74
     0
 42
0.0000000001
 43
0.0000000001
 40
0.0
 40
0.0
 40
0.0
 40
0.0
 40
1.0
 40
1.0
 40
1.0
 40
1.0
 10
435.9439
 20
47.7545
 30
0.0
 10
435.9439
 20
47.7545
 30
0.0
 10
435.9439
 20
48.8763
 30
0.0
 10
435.9439
 20
48.8763
 30
0.0
  0
SPLINE
  5
13F
330
1F
100
AcDbEntity
  8
DEFPOINTS
370
    25
100
AcDbSpline
210
0.0
220
0.0
230
1.0
 70
    24
 71
     3
 72
     8
 73
     4
 74
     0
 42
0.0000000001
 43
0.0000000001
 40
0.0
 40
0.0
 40
0.0
 40
0.0
 40
1.0
 40
1.0
 40
1.0
 40
1.0
 10
435.9439
 20
49.4266
 30
0.0
 10
435.9439
 20
49.4266
 30
0.0
 10
435.9439
 20
50.5485
 30
0.0
 10
435.9439
 20
50.5485
 30
0.0
  0
SPLINE
  5
140
330
1F
100
AcDbEntity
  8
DEFPOINTS
370
    25
100
AcDbSpline
210
0.0
220
0.0
230
1.0
 70
    24
 71
     3
 72
     8
 73
     4
 74
     0
 42
0.0000000001
 43
0.0000000001
 40
0.0
 40
0.0
 40
0.0
 40
0.0
 40
1.0
 40
1.0
 40
1.0
 40
1.0
 10
435.9439
 20
51.12
 30
0.0
 10
435.9439
 20
51.12
 30
0.0
 10
435.9439
 20
52.2418
 30
0.0
 10
435.9439
 20
52.2418
 30
0.0
  0
SPLINE
  5
141
330
1F
100
AcDbEntity
  8
DEFPOINTS
370
    25
100
AcDbSpline
210
0.0
220
0.0
230
1.0
 70
    24
 71
     3
 72
     8
 73
     4
 74
     0
 42
0.0000000001
 43
0.0000000001
 40
0.0
 40
0.0
 40
0.0
 40
0.0
 40
1.0
 40
1.0
 40
1.0
 40
1.0
 10
435.9439
 20
52.7921
 30
0.0
 10
435.9439
 20
52.7921
 30
0.0
 10
435.9439
 20
53.914
 30
0.0
 10
435.9439
 20
53.914
 30
0.0
  0
SPLINE
  5
142
330
1F
100
AcDbEntity
  8
DEFPOINTS
370
    25
100
AcDbSpline
210
0.0
220
0.0
230
1.0
 70
    24
 71
     3
 72
     8
 73
     4
 74
     0
 42
0.0000000001
 43
0.0000000001
 40
0.0
 40
0.0
 40
0.0
 40
0.0
 40
1.0
 40
1.0
 40
1.0
 40
1.0
 10
435.9439
 20
54.4855
 30
0.0
 10
435.9439
 20
54.4855
 30
0.0
 10
435.9439
 20
55.6073
 30
0.0
 10
435.9439
 20
55.6073
 30
0.0
  0
SPLINE
  5
143
330
1F
100
AcDbEntity
  8
DEFPOINTS
370
    25
100
AcDbSpline
210
0.0
220
0.0
230
1.0
 70
    24
 71
     3
 72
     8
 73
     4
 74
     0
 42
0.0000000001
 43
0.0000000001
 40
0.0
 40
0.0
 40
0.0
 40
0.0
 40
1.0
 40
1.0
 40
1.0
 40
1.0
 10
435.9439
 20
56.1576
 30
0.0
 10
435.9439
 20
56.1576
 30
0.0
 10
435.9439
 20
57.2795
 30
0.0
 10
435.9439
 20
57.2795
 30
0.0
  0
SPLINE
  5
144
330
1F
100
AcDbEntity
  8
DEFPOINTS
370
    25
100
AcDbSpline
210
0.0
220
0.0
230
1.0
 70
    24
 71
     3
 72
     8
 73
     4
 74
     0
 42
0.0000000001
 43
0.0000000001
 40
0.0
 40
0.0
 40
0.0
 40
0.0
 40
1.0
 40
1.0
 40
1.0
 40
1.0
 10
435.9439
 20
57.851
 30
0.0
 10
435.9439
 20
57.851
 30
0.0
 10
435.9439
 20
58.9728
 30
0.0
 10
435.9439
 20
58.9728
 30
0.0
  0
SPLINE
  5
145
330
1F
100
AcDbEntity
  8
DEFPOINTS
370
    25
100
AcDbSpline
210
0.0
220
0.0
230
1.0
 70
    24
 71
     3
 72
     8
 73
     4
 74
     0
 42
0.0000000001
 43
0.0000000001
 40
0.0
 40
0.0
 40
0.0
 40
0.0
 40
1.0
 40
1.0
 40
1.0
 40
1.0
 10
435.9439
 20
59.5231
 30
0.0
 10
435.9439
 20
59.5231
 30
0.0
 10
435.9439
 20
60.645
 30
0.0
 10
435.9439
 20
60.645
 30
0.0
  0
SPLINE
  5
146
330
1F
100
AcDbEntity
  8
DEFPOINTS
370
    25
100
AcDbSpline
210
0.0
220
0.0
230
1.0
 70
    24
 71
     3
 72
     8
 73
     4
 74
     0
 42
0.0000000001
 43
0.0000000001
 40
0.0
 40
0.0
 40
0.0
 40
0.0
 40
1.0
 40
1.0
 40
1.0
 40
1.0
 10
435.9439
 20
61.2165
 30
0.0
 10
435.9439
 20
61.2165
 30
0.0
 10
435.9439
 20
62.3383
 30
0.0
 10
435.9439
 20
62.3383
 30
0.0
  0
SPLINE
  5
147
330
1F
100
AcDbEntity
  8
DEFPOINTS
370
    25
100
AcDbSpline
210
0.0
220
0.0
230
1.0
 70
    24
 71
     3
 72
     8
 73
     4
 74
     0
 42
0.0000000001
 43
0.0000000001
 40
0.0
 40
0.0
 40
0.0
 40
0.0
 40
1.0
 40
1.0
 40
1.0
 40
1.0
 10
435.9439
 20
62.8886
 30
0.0
 10
435.9439
 20
62.8886
 30
0.0
 10
435.9439
 20
64.0105
 30
0.0
 10
435.9439
 20
64.0105
 30
0.0
  0
SPLINE
  5
148
330
1F
100
AcDbEntity
  8
DEFPOINTS
370
    25
100
AcDbSpline
210
0.0
220
0.0
230
1.0
 70
    24
 71
     3
 72
     8
 73
     4
 74
     0
 42
0.0000000001
 43
0.0000000001
 40
0.0
 40
0.0
 40
0.0
 40
0.0
 40
1.0
 40
1.0
 40
1.0
 40
1.0
 10
435.9439
 20
64.582
 30
0.0
 10
435.9439
 20
64.582
 30
0.0
 10
435.9439
 20
65.7038
 30
0.0
 10
435.9439
 20
65.7038
 30
0.0
  0
SPLINE
  5
149
330
1F
100
AcDbEntity
  8
DEFPOINTS
370
    25
100
AcDbSpline
210
0.0
220
0.0
230
1.0
 70
    24
 71
     3
 72
     8
 73
     4
 74
     0
 42
0.0000000001
 43
0.0000000001
 40
0.0
 40
0.0
 40
0.0
 40
0.0
 40
1.0
 40
1.0
 40
1.0
 40
1.0
 10
435.9439
 20
66.2541
 30
0.0
 10
435.9439
 20
66.2541
 30
0.0
 10
435.9439
 20
67.3971
 30
0.0
 10
435.9439
 20
67.3971
 30
0.0
  0
SPLINE
  5
14A
330
1F
100
AcDbEntity
  8
DEFPOINTS
370
    25
100
AcDbSpline
210
0.0
220
0.0
230
1.0
 70
    24
 71
     3
 72
     8
 73
     4
 74
     0
 42
0.0000000001
 43
0.0000000001
 40
0.0
 40
0.0
 40
0.0
 40
0.0
 40
1.0
 40
1.0
 40
1.0
 40
1.0
 10
435.9439
 20
67.9475
 30
0.0
 10
435.9439
 20
67.9475
 30
0.0
 10
435.9439
 20
69.0693
 30
0.0
 10
435.9439
 20
69.0693
 30
0.0
  0
SPLINE
  5
14B
330
1F
100
AcDbEntity
  8
DEFPOINTS
370
    25
100
AcDbSpline
210
0.0
220
0.0
230
1.0
 70
    24
 71
     3
 72
     8
 73
     4
 74
     0
 42
0.0000000001
 43
0.0000000001
 40
0.0
 40
0.0
 40
0.0
 40
0.0
 40
1.0
 40
1.0
 40
1.0
 40
1.0
 10
435.9439
 20
69.6408
 30
0.0
 10
435.9439
 20
69.6408
 30
0.0
 10
435.9439
 20
70.7626
 30
0.0
 10
435.9439
 20
70.7626
 30
0.0
  0
SPLINE
  5
14C
330
1F
100
AcDbEntity
  8
DEFPOINTS
370
    25
100
AcDbSpline
210
0.0
220
0.0
230
1.0
 70
    24
 71
     3
 72
     8
 73
     4
 74
     0
 42
0.0000000001
 43
0.0000000001
 40
0.0
 40
0.0
 40
0.0
 40
0.0
 40
1.0
 40
1.0
 40
1.0
 40
1.0
 10
435.9439
 20
71.313
 30
0.0
 10
435.9439
 20
71.313
 30
0.0
 10
435.9439
 20
72.4348
 30
0.0
 10
435.9439
 20
72.4348
 30
0.0
  0
SPLINE
  5
14D
330
1F
100
AcDbEntity
  8
DEFPOINTS
370
    25
100
AcDbSpline
210
0.0
220
0.0
230
1.0
 70
    24
 71
     3
 72
     8
 73
     4
 74
     0
 42
0.0000000001
 43
0.0000000001
 40
0.0
 40
0.0
 40
0.0
 40
0.0
 40
1.0
 40
1.0
 40
1.0
 40
1.0
 10
435.9439
 20
73.0063
 30
0.0
 10
435.9439
 20
73.0063
 30
0.0
 10
435.9439
 20
74.1281
 30
0.0
 10
435.9439
 20
74.1281
 30
0.0
  0
SPLINE
  5
14E
330
1F
100
AcDbEntity
  8
DEFPOINTS
370
    25
100
AcDbSpline
210
0.0
220
0.0
230
1.0
 70
    24
 71
     3
 72
     8
 73
     4
 74
     0
 42
0.0000000001
 43
0.0000000001
 40
0.0
 40
0.0
 40
0.0
 40
0.0
 40
1.0
 40
1.0
 40
1.0
 40
1.0
 10
435.9439
 20
74.6785
 30
0.0
 10
435.9439
 20
74.6785
 30
0.0
 10
435.9439
 20
75.8003
 30
0.0
 10
435.9439
 20
75.8003
 30
0.0
  0
SPLINE
  5
14F
330
1F
100
AcDbEntity
  8
DEFPOINTS
370
    25
100
AcDbSpline
210
0.0
220
0.0
230
1.0
 70
    24
 71
     3
 72
     8
 73
     4
 74
     0
 42
0.0000000001
 43
0.0000000001
 40
0.0
 40
0.0
 40
0.0
 40
0.0
 40
1.0
 40
1.0
 40
1.0
 40
1.0
 10
435.9439
 20
76.3718
 30
0.0
 10
435.9439
 20
76.3718
 30
0.0
 10
435.9439
 20
77.4936
 30
0.0
 10
435.9439
 20
77.4936
 30
0.0
  0
SPLINE
  5
150
330
1F
100
AcDbEntity
  8
DEFPOINTS
370
    25
100
AcDbSpline
210
0.0
220
0.0
230
1.0
 70
    24
 71
     3
 72
     8
 73
     4
 74
     0
 42
0.0000000001
 43
0.0000000001
 40
0.0
 40
0.0
 40
0.0
 40
0.0
 40
1.0
 40
1.0
 40
1.0
 40
1.0
 10
435.9439
 20
78.044
 30
0.0
 10
435.9439
 20
78.044
 30
0.0
 10
435.9439
 20
79.1658
 30
0.0
 10
435.9439
 20
79.1658
 30
0.0
  0
SPLINE
  5
151
330
1F
100
AcDbEntity
  8
DEFPOINTS
370
    25
100
AcDbSpline
210
0.0
220
0.0
230
1.0
 70
    24
 71
     3
 72
     8
 73
     4
 74
     0
 42
0.0000000001
 43
0.0000000001
 40
0.0
 40
0.0
 40
0.0
 40
0.0
 40
1.0
 40
1.0
 40
1.0
 40
1.0
 10
435.9439
 20
79.7373
 30
0.0
 10
435.9439
 20
79.7373
 30
0.0
 10
435.9439
 20
80.9015
 30
0.0
 10
435.9439
 20
80.9015
 30
0.0
  0
SPLINE
  5
152
330
1F
100
AcDbEntity
  8
DEFPOINTS
370
    25
100
AcDbSpline
210
0.0
220
0.0
230
1.0
 70
    24
 71
     3
 72
     8
 73
     4
 74
     0
 42
0.0000000001
 43
0.0000000001
 40
0.0
 40
0.0
 40
0.0
 40
0.0
 40
1.0
 40
1.0
 40
1.0
 40
1.0
 10
557.1443
 20
80.9015
 30
0.0
 10
557.1443
 20
80.9015
 30
0.0
 10
557.1443
 20
79.7373
 30
0.0
 10
557.1443
 20
79.7373
 30
0.0
  0
SPLINE
  5
153
330
1F
100
AcDbEntity
  8
DEFPOINTS
370
    25
100
AcDbSpline
210
0.0
220
0.0
230
1.0
 70
    24
 71
     3
 72
     8
 73
     4
 74
     0
 42
0.0000000001
 43
0.0000000001
 40
0.0
 40
0.0
 40
0.0
 40
0.0
 40
1.0
 40
1.0
 40
1.0
 40
1.0
 10
557.1443
 20
79.1658
 30
0.0
 10
557.1443
 20
79.1658
 30
0.0
 10
557.1443
 20
78.044
 30
0.0
 10
557.1443
 20
78.044
 30
0.0
  0
SPLINE
  5
154
330
1F
100
AcDbEntity
  8
DEFPOINTS
370
    25
100
AcDbSpline
210
0.0
220
0.0
230
1.0
 70
    24
 71
     3
 72
     8
 73
     4
 74
     0
 42
0.0000000001
 43
0.0000000001
 40
0.0
 40
0.0
 40
0.0
 40
0.0
 40
1.0
 40
1.0
 40
1.0
 40
1.0
 10
557.1443
 20
77.4936
 30
0.0
 10
557.1443
 20
77.4936
 30
0.0
 10
557.1443
 20
76.3718
 30
0.0
 10
557.1443
 20
76.3718
 30
0.0
  0
SPLINE
  5
155
330
1F
100
AcDbEntity
  8
DEFPOINTS
370
    25
100
AcDbSpline
210
0.0
220
0.0
230
1.0
 70
    24
 71
     3
 72
     8
 73
     4
 74
     0
 42
0.0000000001
 43
0.0000000001
 40
0.0
 40
0.0
 40
0.0
 40
0.0
 40
1.0
 40
1.0
 40
1.0
 40
1.0
 10
557.1443
 20
75.8003
 30
0.0
 10
557.1443
 20
75.8003
 30
0.0
 10
557.1443
 20
74.6785
 30
0.0
 10
557.1443
 20
74.6785
 30
0.0
  0
SPLINE
  5
156
330
1F
100
AcDbEntity
  8
DEFPOINTS
370
    25
100
AcDbSpline
210
0.0
220
0.0
230
1.0
 70
    24
 71
     3
 72
     8
 73
     4
 74
     0
 42
0.0000000001
 43
0.0000000001
 40
0.0
 40
0.0
 40
0.0
 40
0.0
 40
1.0
 40
1.0
 40
1.0
 40
1.0
 10
557.1443
 20
74.1281
 30
0.0
 10
557.1443
 20
74.1281
 30
0.0
 10
557.1443
 20
73.0063
 30
0.0
 10
557.1443
 20
73.0063
 30
0.0
  0
SPLINE
  5
157
330
1F
100
AcDbEntity
  8
DEFPOINTS
370
    25
100
AcDbSpline
210
0.0
220
0.0
230
1.0
 70
    24
 71
     3
 72
     8
 73
     4
 74
     0
 42
0.0000000001
 43
0.0000000001
 40
0.0
 40
0.0
 40
0.0
 40
0.0
 40
1.0
 40
1.0
 40
1.0
 40
1.0
 10
557.1443
 20
72.4348
 30
0.0
 10
557.1443
 20
72.4348
 30
0.0
 10
557.1443
 20
71.313
 30
0.0
 10
557.1443
 20
71.313
 30
0.0
  0
SPLINE
  5
158
330
1F
100
AcDbEntity
  8
DEFPOINTS
370
    25
100
AcDbSpline
210
0.0
220
0.0
230
1.0
 70
    24
 71
     3
 72
     8
 73
     4
 74
     0
 42
0.0000000001
 43
0.0000000001
 40
0.0
 40
0.0
 40
0.0
 40
0.0
 40
1.0
 40
1.0
 40
1.0
 40
1.0
 10
557.1443
 20
70.7626
 30
0.0
 10
557.1443
 20
70.7626
 30
0.0
 10
557.1443
 20
69.6408
 30
0.0
 10
557.1443
 20
69.6408
 30
0.0
  0
SPLINE
  5
159
330
1F
100
AcDbEntity
  8
DEFPOINTS
370
    25
100
AcDbSpline
210
0.0
220
0.0
230
1.0
 70
    24
 71
     3
 72
     8
 73
     4
 74
     0
 42
0.0000000001
 43
0.0000000001
 40
0.0
 40
0.0
 40
0.0
 40
0.0
 40
1.0
 40
1.0
 40
1.0
 40
1.0
 10
557.1443
 20
69.0693
 30
0.0
 10
557.1443
 20
69.0693
 30
0.0
 10
557.1443
 20
67.9475
 30
0.0
 10
557.1443
 20
67.9475
 30
0.0
  0
SPLINE
  5
15A
330
1F
100
AcDbEntity
  8
DEFPOINTS
370
    25
100
AcDbSpline
210
0.0
220
0.0
230
1.0
 70
    24
 71
     3
 72
     8
 73
     4
 74
     0
 42
0.0000000001
 43
0.0000000001
 40
0.0
 40
0.0
 40
0.0
 40
0.0
 40
1.0
 40
1.0
 40
1.0
 40
1.0
 10
557.1443
 20
67.3971
 30
0.0
 10
557.1443
 20
67.3971
 30
0.0
 10
557.1443
 20
66.2541
 30
0.0
 10
557.1443
 20
66.2541
 30
0.0
  0
SPLINE
  5
15B
330
1F
100
AcDbEntity
  8
DEFPOINTS
370
    25
100
AcDbSpline
210
0.0
220
0.0
230
1.0
 70
    24
 71
     3
 72
     8
 73
     4
 74
     0
 42
0.0000000001
 43
0.0000000001
 40
0.0
 40
0.0
 40
0.0
 40
0.0
 40
1.0
 40
1.0
 40
1.0
 40
1.0
 10
557.1443
 20
65.7038
 30
0.0
 10
557.1443
 20
65.7038
 30
0.0
 10
557.1443
 20
64.582
 30
0.0
 10
557.1443
 20
64.582
 30
0.0
  0
SPLINE
  5
15C
330
1F
100
AcDbEntity
  8
DEFPOINTS
370
    25
100
AcDbSpline
210
0.0
220
0.0
230
1.0
 70
    24
 71
     3
 72
     8
 73
     4
 74
     0
 42
0.0000000001
 43
0.0000000001
 40
0.0
 40
0.0
 40
0.0
 40
0.0
 40
1.0
 40
1.0
 40
1.0
 40
1.0
 10
557.1443
 20
64.0105
 30
0.0
 10
557.1443
 20
64.0105
 30
0.0
 10
557.1443
 20
62.8886
 30
0.0
 10
557.1443
 20
62.8886
 30
0.0
  0
SPLINE
  5
15D
330
1F
100
AcDbEntity
  8
DEFPOINTS
370
    25
100
AcDbSpline
210
0.0
220
0.0
230
1.0
 70
    24
 71
     3
 72
     8
 73
     4
 74
     0
 42
0.0000000001
 43
0.0000000001
 40
0.0
 40
0.0
 40
0.0
 40
0.0
 40
1.0
 40
1.0
 40
1.0
 40
1.0
 10
557.1443
 20
62.3383
 30
0.0
 10
557.1443
 20
62.3383
 30
0.0
 10
557.1443
 20
61.2165
 30
0.0
 10
557.1443
 20
61.2165
 30
0.0
  0
SPLINE
  5
15E
330
1F
100
AcDbEntity
  8
DEFPOINTS
370
    25
100
AcDbSpline
210
0.0
220
0.0
230
1.0
 70
    24
 71
     3
 72
     8
 73
     4
 74
     0
 42
0.0000000001
 43
0.0000000001
 40
0.0
 40
0.0
 40
0.0
 40
0.0
 40
1.0
 40
1.0
 40
1.0
 40
1.0
 10
557.1443
 20
60.645
 30
0.0
 10
557.1443
 20
60.645
 30
0.0
 10
557.1443
 20
59.5231
 30
0.0
 10
557.1443
 20
59.5231
 30
0.0
  0
SPLINE
  5
15F
330
1F
100
AcDbEntity
  8
DEFPOINTS
370
    25
100
AcDbSpline
210
0.0
220
0.0
230
1.0
 70
    24
 71
     3
 72
     8
 73
     4
 74
     0
 42
0.0000000001
 43
0.0000000001
 40
0.0
 40
0.0
 40
0.0
 40
0.0
 40
1.0
 40
1.0
 40
1.0
 40
1.0
 10
557.1443
 20
58.9728
 30
0.0
 10
557.1443
 20
58.9728
 30
0.0
 10
557.1443
 20
57.851
 30
0.0
 10
557.1443
 20
57.851
 30
0.0
  0
SPLINE
  5
160
330
1F
100
AcDbEntity
  8
DEFPOINTS
370
    25
100
AcDbSpline
210
0.0
220
0.0
230
1.0
 70
    24
 71
     3
 72
     8
 73
     4
 74
     0
 42
0.0000000001
 43
0.0000000001
 40
0.0
 40
0.0
 40
0.0
 40
0.0
 40
1.0
 40
1.0
 40
1.0
 40
1.0
 10
557.1443
 20
57.2795
 30
0.0
 10
557.1443
 20
57.2795
 30
0.0
 10
557.1443
 20
56.1576
 30
0.0
 10
557.1443
 20
56.1576
 30
0.0
  0
SPLINE
  5
161
330
1F
100
AcDbEntity
  8
DEFPOINTS
370
    25
100
AcDbSpline
210
0.0
220
0.0
230
1.0
 70
    24
 71
     3
 72
     8
 73
     4
 74
     0
 42
0.0000000001
 43
0.0000000001
 40
0.0
 40
0.0
 40
0.0
 40
0.0
 40
1.0
 40
1.0
 40
1.0
 40
1.0
 10
557.1443
 20
55.6073
 30
0.0
 10
557.1443
 20
55.6073
 30
0.0
 10
557.1443
 20
54.4855
 30
0.0
 10
557.1443
 20
54.4855
 30
0.0
  0
SPLINE
  5
162
330
1F
100
AcDbEntity
  8
DEFPOINTS
370
    25
100
AcDbSpline
210
0.0
220
0.0
230
1.0
 70
    24
 71
     3
 72
     8
 73
     4
 74
     0
 42
0.0000000001
 43
0.0000000001
 40
0.0
 40
0.0
 40
0.0
 40
0.0
 40
1.0
 40
1.0
 40
1.0
 40
1.0
 10
557.1443
 20
53.914
 30
0.0
 10
557.1443
 20
53.914
 30
0.0
 10
557.1443
 20
52.7921
 30
0.0
 10
557.1443
 20
52.7921
 30
0.0
  0
SPLINE
  5
163
330
1F
100
AcDbEntity
  8
DEFPOINTS
370
    25
100
AcDbSpline
210
0.0
220
0.0
230
1.0
 70
    24
 71
     3
 72
     8
 73
     4
 74
     0
 42
0.0000000001
 43
0.0000000001
 40
0.0
 40
0.0
 40
0.0
 40
0.0
 40
1.0
 40
1.0
 40
1.0
 40
1.0
 10
557.1443
 20
52.2418
 30
0.0
 10
557.1443
 20
52.2418
 30
0.0
 10
557.1443
 20
51.12
 30
0.0
 10
557.1443
 20
51.12
 30
0.0
  0
SPLINE
  5
164
330
1F
100
AcDbEntity
  8
DEFPOINTS
370
    25
100
AcDbSpline
210
0.0
220
0.0
230
1.0
 70
    24
 71
     3
 72
     8
 73
     4
 74
     0
 42
0.0000000001
 43
0.0000000001
 40
0.0
 40
0.0
 40
0.0
 40
0.0
 40
1.0
 40
1.0
 40
1.0
 40
1.0
 10
557.1443
 20
50.5485
 30
0.0
 10
557.1443
 20
50.5485
 30
0.0
 10
557.1443
 20
49.4266
 30
0.0
 10
557.1443
 20
49.4266
 30
0.0
  0
SPLINE
  5
165
330
1F
100
AcDbEntity
  8
DEFPOINTS
370
    25
100
AcDbSpline
210
0.0
220
0.0
230
1.0
 70
    24
 71
     3
 72
     8
 73
     4
 74
     0
 42
0.0000000001
 43
0.0000000001
 40
0.0
 40
0.0
 40
0.0
 40
0.0
 40
1.0
 40
1.0
 40
1.0
 40
1.0
 10
557.1443
 20
48.8763
 30
0.0
 10
557.1443
 20
48.8763
 30
0.0
 10
557.1443
 20
47.7545
 30
0.0
 10
557.1443
 20
47.7545
 30
0.0
  0
SPLINE
  5
166
330
1F
100
AcDbEntity
  8
DEFPOINTS
370
    25
100
AcDbSpline
210
0.0
220
0.0
230
1.0
 70
    24
 71
     3
 72
     8
 73
     4
 74
     0
 42
0.0000000001
 43
0.0000000001
 40
0.0
 40
0.0
 40
0.0
 40
0.0
 40
1.0
 40
1.0
 40
1.0
 40
1.0
 10
557.1443
 20
47.183
 30
0.0
 10
557.1443
 20
47.183
 30
0.0
 10
557.1443
 20
46.0611
 30
0.0
 10
557.1443
 20
46.0611
 30
0.0
  0
SPLINE
  5
167
330
1F
100
AcDbEntity
  8
DEFPOINTS
370
    25
100
AcDbSpline
210
0.0
220
0.0
230
1.0
 70
    24
 71
     3
 72
     8
 73
     4
 74
     0
 42
0.0000000001
 43
0.0000000001
 40
0.0
 40
0.0
 40
0.0
 40
0.0
 40
1.0
 40
1.0
 40
1.0
 40
1.0
 10
557.1443
 20
45.5108
 30
0.0
 10
557.1443
 20
45.5108
 30
0.0
 10
557.1443
 20
44.389
 30
0.0
 10
557.1443
 20
44.389
 30
0.0
  0
SPLINE
  5
168
330
1F
100
AcDbEntity
  8
DEFPOINTS
370
    25
100
AcDbSpline
210
0.0
220
0.0
230
1.0
 70
    24
 71
     3
 72
     8
 73
     4
 74
     0
 42
0.0000000001
 43
0.0000000001
 40
0.0
 40
0.0
 40
0.0
 40
0.0
 40
1.0
 40
1.0
 40
1.0
 40
1.0
 10
557.1443
 20
43.8175
 30
0.0
 10
557.1443
 20
43.8175
 30
0.0
 10
557.1443
 20
42.6956
 30
0.0
 10
557.1443
 20
42.6956
 30
0.0
  0
SPLINE
  5
169
330
1F
100
AcDbEntity
  8
DEFPOINTS
370
    25
100
AcDbSpline
210
0.0
220
0.0
230
1.0
 70
    24
 71
     3
 72
     8
 73
     4
 74
     0
 42
0.0000000001
 43
0.0000000001
 40
0.0
 40
0.0
 40
0.0
 40
0.0
 40
1.0
 40
1.0
 40
1.0
 40
1.0
 10
557.1443
 20
42.1241
 30
0.0
 10
557.1443
 20
42.1241
 30
0.0
 10
557.1443
 20
41.0023
 30
0.0
 10
557.1443
 20
41.0023
 30
0.0
  0
SPLINE
  5
16A
330
1F
100
AcDbEntity
  8
DEFPOINTS
370
    25
100
AcDbSpline
210
0.0
220
0.0
230
1.0
 70
    24
 71
     3
 72
     8
 73
     4
 74
     0
 42
0.0000000001
 43
0.0000000001
 40
0.0
 40
0.0
 40
0.0
 40
0.0
 40
1.0
 40
1.0
 40
1.0
 40
1.0
 10
557.1443
 20
40.452
 30
0.0
 10
557.1443
 20
40.452
 30
0.0
 10
557.1443
 20
39.3301
 30
0.0
 10
557.1443
 20
39.3301
 30
0.0
  0
SPLINE
  5
16B
330
1F
100
AcDbEntity
  8
DEFPOINTS
370
    25
100
AcDbSpline
210
0.0
220
0.0
230
1.0
 70
    24
 71
     3
 72
     8
 73
     4
 74
     0
 42
0.0000000001
 43
0.0000000001
 40
0.0
 40
0.0
 40
0.0
 40
0.0
 40
1.0
 40
1.0
 40
1.0
 40
1.0
 10
557.1443
 20
38.7586
 30
0.0
 10
557.1443
 20
38.7586
 30
0.0
 10
557.1443
 20
37.6368
 30
0.0
 10
557.1443
 20
37.6368
 30
0.0
  0
SPLINE
  5
16C
330
1F
100
AcDbEntity
  8
DEFPOINTS
370
    25
100
AcDbSpline
210
0.0
220
0.0
230
1.0
 70
    24
 71
     3
 72
     8
 73
     4
 74
     0
 42
0.0000000001
 43
0.0000000001
 40
0.0
 40
0.0
 40
0.0
 40
0.0
 40
1.0
 40
1.0
 40
1.0
 40
1.0
 10
557.1443
 20
37.0865
 30
0.0
 10
557.1443
 20
37.0865
 30
0.0
 10
557.1443
 20
35.9646
 30
0.0
 10
557.1443
 20
35.9646
 30
0.0
  0
SPLINE
  5
16D
330
1F
100
AcDbEntity
  8
DEFPOINTS
370
    25
100
AcDbSpline
210
0.0
220
0.0
230
1.0
 70
    24
 71
     3
 72
     8
 73
     4
 74
     0
 42
0.0000000001
 43
0.0000000001
 40
0.0
 40
0.0
 40
0.0
 40
0.0
 40
1.0
 40
1.0
 40
1.0
 40
1.0
 10
557.1443
 20
35.3931
 30
0.0
 10
557.1443
 20
35.3931
 30
0.0
 10
557.1443
 20
34.2713
 30
0.0
 10
557.1443
 20
34.2713
 30
0.0
  0
SPLINE
  5
16E
330
1F
100
AcDbEntity
  8
DEFPOINTS
370
    25
100
AcDbSpline
210
0.0
220
0.0
230
1.0
 70
    24
 71
     3
 72
     8
 73
     4
 74
     0
 42
0.0000000001
 43
0.0000000001
 40
0.0
 40
0.0
 40
0.0
 40
0.0
 40
1.0
 40
1.0
 40
1.0
 40
1.0
 10
557.1443
 20
33.721
 30
0.0
 10
557.1443
 20
33.721
 30
0.0
 10
557.1443
 20
32.5991
 30
0.0
 10
557.1443
 20
32.5991
 30
0.0
  0
SPLINE
  5
16F
330
1F
100
AcDbEntity
  8
DEFPOINTS
370
    25
100
AcDbSpline
210
0.0
220
0.0
230
1.0
 70
    24
 71
     3
 72
     8
 73
     4
 74
     0
 42
0.0000000001
 43
0.0000000001
 40
0.0
 40
0.0
 40
0.0
 40
0.0
 40
1.0
 40
1.0
 40
1.0
 40
1.0
 10
557.1443
 20
32.0276
 30
0.0
 10
557.1443
 20
32.0276
 30
0.0
 10
557.1443
 20
30.9058
 30
0.0
 10
557.1443
 20
30.9058
 30
0.0
  0
SPLINE
  5
170
330
1F
100
AcDbEntity
  8
DEFPOINTS
370
    25
100
AcDbSpline
210
0.0
220
0.0
230
1.0
 70
    24
 71
     3
 72
     8
 73
     4
 74
     0
 42
0.0000000001
 43
0.0000000001
 40
0.0
 40
0.0
 40
0.0
 40
0.0
 40
1.0
 40
1.0
 40
1.0
 40
1.0
 10
557.1443
 20
30.3555
 30
0.0
 10
557.1443
 20
30.3555
 30
0.0
 10
557.1443
 20
29.2336
 30
0.0
 10
557.1443
 20
29.2336
 30
0.0
  0
SPLINE
  5
171
330
1F
100
AcDbEntity
  8
DEFPOINTS
370
    25
100
AcDbSpline
210
0.0
220
0.0
230
1.0
 70
    24
 71
     3
 72
     8
 73
     4
 74
     0
 42
0.0000000001
 43
0.0000000001
 40
0.0
 40
0.0
 40
0.0
 40
0.0
 40
1.0
 40
1.0
 40
1.0
 40
1.0
 10
557.1443
 20
28.6621
 30
0.0
 10
557.1443
 20
28.6621
 30
0.0
 10
557.1443
 20
27.5403
 30
0.0
 10
557.1443
 20
27.5403
 30
0.0
  0
SPLINE
  5
172
330
1F
100
AcDbEntity
  8
DEFPOINTS
370
    25
100
AcDbSpline
210
0.0
220
0.0
230
1.0
 70
    24
 71
     3
 72
     8
 73
     4
 74
     0
 42
0.0000000001
 43
0.0000000001
 40
0.0
 40
0.0
 40
0.0
 40
0.0
 40
1.0
 40
1.0
 40
1.0
 40
1.0
 10
557.1443
 20
26.99
 30
0.0
 10
557.1443
 20
26.99
 30
0.0
 10
557.1443
 20
25.8681
 30
0.0
 10
557.1443
 20
25.8681
 30
0.0
  0
SPLINE
  5
173
330
1F
100
AcDbEntity
  8
DEFPOINTS
370
    25
100
AcDbSpline
210
0.0
220
0.0
230
1.0
 70
    24
 71
     3
 72
     8
 73
     4
 74
     0
 42
0.0000000001
 43
0.0000000001
 40
0.0
 40
0.0
 40
0.0
 40
0.0
 40
1.0
 40
1.0
 40
1.0
 40
1.0
 10
557.1443
 20
25.2966
 30
0.0
 10
557.1443
 20
25.2966
 30
0.0
 10
557.1443
 20
24.1748
 30
0.0
 10
557.1443
 20
24.1748
 30
0.0
  0
SPLINE
  5
174
330
1F
100
AcDbEntity
  8
DEFPOINTS
370
    25
100
AcDbSpline
210
0.0
220
0.0
230
1.0
 70
    24
 71
     3
 72
     8
 73
     4
 74
     0
 42
0.0000000001
 43
0.0000000001
 40
0.0
 40
0.0
 40
0.0
 40
0.0
 40
1.0
 40
1.0
 40
1.0
 40
1.0
 10
557.1443
 20
23.6245
 30
0.0
 10
557.1443
 20
23.6245
 30
0.0
 10
557.1443
 20
22.5026
 30
0.0
 10
557.1443
 20
22.5026
 30
0.0
  0
SPLINE
  5
175
330
1F
100
AcDbEntity
  8
DEFPOINTS
370
    25
100
AcDbSpline
210
0.0
220
0.0
230
1.0
 70
    24
 71
     3
 72
     8
 73
     4
 74
     0
 42
0.0000000001
 43
0.0000000001
 40
0.0
 40
0.0
 40
0.0
 40
0.0
 40
1.0
 40
1.0
 40
1.0
 40
1.0
 10
557.1443
 20
21.9311
 30
0.0
 10
557.1443
 20
21.9311
 30
0.0
 10
557.1443
 20
20.8093
 30
0.0
 10
557.1443
 20
20.8093
 30
0.0
  0
SPLINE
  5
176
330
1F
100
AcDbEntity
  8
DEFPOINTS
370
    25
100
AcDbSpline
210
0.0
220
0.0
230
1.0
 70
    24
 71
     3
 72
     8
 73
     4
 74
     0
 42
0.0000000001
 43
0.0000000001
 40
0.0
 40
0.0
 40
0.0
 40
0.0
 40
1.0
 40
1.0
 40
1.0
 40
1.0
 10
557.1443
 20
20.2378
 30
0.0
 10
557.1443
 20
20.2378
 30
0.0
 10
557.1443
 20
19.116
 30
0.0
 10
557.1443
 20
19.116
 30
0.0
  0
SPLINE
  5
177
330
1F
100
AcDbEntity
  8
DEFPOINTS
370
    25
100
AcDbSpline
210
0.0
220
0.0
230
1.0
 70
    24
 71
     3
 72
     8
 73
     4
 74
     0
 42
0.0000000001
 43
0.0000000001
 40
0.0
 40
0.0
 40
0.0
 40
0.0
 40
1.0
 40
1.0
 40
1.0
 40
1.0
 10
557.1443
 20
18.5656
 30
0.0
 10
557.1443
 20
18.5656
 30
0.0
 10
557.1443
 20
17.4438
 30
0.0
 10
557.1443
 20
17.4438
 30
0.0
  0
SPLINE
  5
178
330
1F
100
AcDbEntity
  8
DEFPOINTS
370
    25
100
AcDbSpline
210
0.0
220
0.0
230
1.0
 70
    24
 71
     3
 72
     8
 73
     4
 74
     0
 42
0.0000000001
 43
0.0000000001
 40
0.0
 40
0.0
 40
0.0
 40
0.0
 40
1.0
 40
1.0
 40
1.0
 40
1.0
 10
557.1443
 20
16.8723
 30
0.0
 10
557.1443
 20
16.8723
 30
0.0
 10
557.1443
 20
15.7505
 30
0.0
 10
557.1443
 20
15.7505
 30
0.0
  0
SPLINE
  5
179
330
1F
100
AcDbEntity
  8
DEFPOINTS
370
    25
100
AcDbSpline
210
0.0
220
0.0
230
1.0
 70
    24
 71
     3
 72
     8
 73
     4
 74
     0
 42
0.0000000001
 43
0.0000000001
 40
0.0
 40
0.0
 40
0.0
 40
0.0
 40
1.0
 40
1.0
 40
1.0
 40
1.0
 10
557.1443
 20
15.2001
 30
0.0
 10
557.1443
 20
15.2001
 30
0.0
 10
557.1443
 20
14.0783
 30
0.0
 10
557.1443
 20
14.0783
 30
0.0
  0
SPLINE
  5
17A
330
1F
100
AcDbEntity
  8
DEFPOINTS
370
    25
100
AcDbSpline
210
0.0
220
0.0
230
1.0
 70
    24
 71
     3
 72
     8
 73
     4
 74
     0
 42
0.0000000001
 43
0.0000000001
 40
0.0
 40
0.0
 40
0.0
 40
0.0
 40
1.0
 40
1.0
 40
1.0
 40
1.0
 10
557.1443
 20
13.5068
 30
0.0
 10
557.1443
 20
13.5068
 30
0.0
 10
557.1443
 20
12.3638
 30
0.0
 10
557.1443
 20
12.3638
 30
0.0
  0
SPLINE
  5
17B
330
1F
100
AcDbEntity
  8
DEFPOINTS
370
    25
100
AcDbSpline
210
0.0
220
0.0
230
1.0
 70
    24
 71
     3
 72
     8
 73
     4
 74
     0
 42
0.0000000001
 43
0.0000000001
 40
0.0
 40
0.0
 40
0.0
 40
0.0
 40
1.0
 40
1.0
 40
1.0
 40
1.0
 10
558.0544
 20
81.7905
 30
0.0
 10
558.0544
 20
81.7905
 30
0.0
 10
558.0544
 20
12.3638
 30
0.0
 10
558.0544
 20
12.3638
 30
0.0
  0
SPLINE
  5
17C
330
1F
100
AcDbEntity
  8
DEFPOINTS
370
    25
100
AcDbSpline
210
0.0
220
0.0
230
1.0
 70
    24
 71
     3
 72
     8
 73
     4
 74
     0
 42
0.0000000001
 43
0.0000000001
 40
0.0
 40
0.0
 40
0.0
 40
0.0
 40
1.0
 40
1.0
 40
1.0
 40
1.0
 10
437.2986
 20
84.0341
 30
0.0
 10
437.2986
 20
84.0341
 30
0.0
 10
555.8108
 20
84.0341
 30
0.0
 10
555.8108
 20
84.0341
 30
0.0
  0
SPLINE
  5
17D
330
1F
100
AcDbEntity
  8
DEFPOINTS
370
    25
100
AcDbSpline
210
0.0
220
0.0
230
1.0
 70
    24
 71
     3
 72
     8
 73
     4
 74
     0
 42
0.0000000001
 43
0.0000000001
 40
0.0
 40
0.0
 40
0.0
 40
0.0
 40
1.0
 40
1.0
 40
1.0
 40
1.0
 10
435.4994
 20
12.3638
 30
0.0
 10
435.4994
 20
12.3638
 30
0.0
 10
435.4994
 20
13.7396
 30
0.0
 10
435.4994
 20
13.7396
 30
0.0
  0
SPLINE
  5
17E
330
1F
100
AcDbEntity
  8
DEFPOINTS
370
    25
100
AcDbSpline
210
0.0
220
0.0
230
1.0
 70
    24
 71
     3
 72
     8
 73
     4
 74
     0
 42
0.0000000001
 43
0.0000000001
 40
0.0
 40
0.0
 40
0.0
 40
0.0
 40
1.0
 40
1.0
 40
1.0
 40
1.0
 10
435.4994
 20
14.29
 30
0.0
 10
435.4994
 20
14.29
 30
0.0
 10
435.4994
 20
15.4118
 30
0.0
 10
435.4994
 20
15.4118
 30
0.0
  0
SPLINE
  5
17F
330
1F
100
AcDbEntity
  8
DEFPOINTS
370
    25
100
AcDbSpline
210
0.0
220
0.0
230
1.0
 70
    24
 71
     3
 72
     8
 73
     4
 74
     0
 42
0.0000000001
 43
0.0000000001
 40
0.0
 40
0.0
 40
0.0
 40
0.0
 40
1.0
 40
1.0
 40
1.0
 40
1.0
 10
435.4994
 20
15.9833
 30
0.0
 10
435.4994
 20
15.9833
 30
0.0
 10
435.4994
 20
17.1051
 30
0.0
 10
435.4994
 20
17.1051
 30
0.0
  0
SPLINE
  5
180
330
1F
100
AcDbEntity
  8
DEFPOINTS
370
    25
100
AcDbSpline
210
0.0
220
0.0
230
1.0
 70
    24
 71
     3
 72
     8
 73
     4
 74
     0
 42
0.0000000001
 43
0.0000000001
 40
0.0
 40
0.0
 40
0.0
 40
0.0
 40
1.0
 40
1.0
 40
1.0
 40
1.0
 10
435.4994
 20
17.6766
 30
0.0
 10
435.4994
 20
17.6766
 30
0.0
 10
435.4994
 20
18.7985
 30
0.0
 10
435.4994
 20
18.7985
 30
0.0
  0
SPLINE
  5
181
330
1F
100
AcDbEntity
  8
DEFPOINTS
370
    25
100
AcDbSpline
210
0.0
220
0.0
230
1.0
 70
    24
 71
     3
 72
     8
 73
     4
 74
     0
 42
0.0000000001
 43
0.0000000001
 40
0.0
 40
0.0
 40
0.0
 40
0.0
 40
1.0
 40
1.0
 40
1.0
 40
1.0
 10
435.4994
 20
19.3488
 30
0.0
 10
435.4994
 20
19.3488
 30
0.0
 10
435.4994
 20
20.4706
 30
0.0
 10
435.4994
 20
20.4706
 30
0.0
  0
SPLINE
  5
182
330
1F
100
AcDbEntity
  8
DEFPOINTS
370
    25
100
AcDbSpline
210
0.0
220
0.0
230
1.0
 70
    24
 71
     3
 72
     8
 73
     4
 74
     0
 42
0.0000000001
 43
0.0000000001
 40
0.0
 40
0.0
 40
0.0
 40
0.0
 40
1.0
 40
1.0
 40
1.0
 40
1.0
 10
435.4994
 20
21.0421
 30
0.0
 10
435.4994
 20
21.0421
 30
0.0
 10
435.4994
 20
22.164
 30
0.0
 10
435.4994
 20
22.164
 30
0.0
  0
SPLINE
  5
183
330
1F
100
AcDbEntity
  8
DEFPOINTS
370
    25
100
AcDbSpline
210
0.0
220
0.0
230
1.0
 70
    24
 71
     3
 72
     8
 73
     4
 74
     0
 42
0.0000000001
 43
0.0000000001
 40
0.0
 40
0.0
 40
0.0
 40
0.0
 40
1.0
 40
1.0
 40
1.0
 40
1.0
 10
435.4994
 20
22.7143
 30
0.0
 10
435.4994
 20
22.7143
 30
0.0
 10
435.4994
 20
23.8361
 30
0.0
 10
435.4994
 20
23.8361
 30
0.0
  0
SPLINE
  5
184
330
1F
100
AcDbEntity
  8
DEFPOINTS
370
    25
100
AcDbSpline
210
0.0
220
0.0
230
1.0
 70
    24
 71
     3
 72
     8
 73
     4
 74
     0
 42
0.0000000001
 43
0.0000000001
 40
0.0
 40
0.0
 40
0.0
 40
0.0
 40
1.0
 40
1.0
 40
1.0
 40
1.0
 10
435.4994
 20
24.4076
 30
0.0
 10
435.4994
 20
24.4076
 30
0.0
 10
435.4994
 20
25.5295
 30
0.0
 10
435.4994
 20
25.5295
 30
0.0
  0
SPLINE
  5
185
330
1F
100
AcDbEntity
  8
DEFPOINTS
370
    25
100
AcDbSpline
210
0.0
220
0.0
230
1.0
 70
    24
 71
     3
 72
     8
 73
     4
 74
     0
 42
0.0000000001
 43
0.0000000001
 40
0.0
 40
0.0
 40
0.0
 40
0.0
 40
1.0
 40
1.0
 40
1.0
 40
1.0
 10
435.4994
 20
26.0798
 30
0.0
 10
435.4994
 20
26.0798
 30
0.0
 10
435.4994
 20
27.2016
 30
0.0
 10
435.4994
 20
27.2016
 30
0.0
  0
SPLINE
  5
186
330
1F
100
AcDbEntity
  8
DEFPOINTS
370
    25
100
AcDbSpline
210
0.0
220
0.0
230
1.0
 70
    24
 71
     3
 72
     8
 73
     4
 74
     0
 42
0.0000000001
 43
0.0000000001
 40
0.0
 40
0.0
 40
0.0
 40
0.0
 40
1.0
 40
1.0
 40
1.0
 40
1.0
 10
435.4994
 20
27.7731
 30
0.0
 10
435.4994
 20
27.7731
 30
0.0
 10
435.4994
 20
28.895
 30
0.0
 10
435.4994
 20
28.895
 30
0.0
  0
SPLINE
  5
187
330
1F
100
AcDbEntity
  8
DEFPOINTS
370
    25
100
AcDbSpline
210
0.0
220
0.0
230
1.0
 70
    24
 71
     3
 72
     8
 73
     4
 74
     0
 42
0.0000000001
 43
0.0000000001
 40
0.0
 40
0.0
 40
0.0
 40
0.0
 40
1.0
 40
1.0
 40
1.0
 40
1.0
 10
435.4994
 20
29.4453
 30
0.0
 10
435.4994
 20
29.4453
 30
0.0
 10
435.4994
 20
30.5671
 30
0.0
 10
435.4994
 20
30.5671
 30
0.0
  0
SPLINE
  5
188
330
1F
100
AcDbEntity
  8
DEFPOINTS
370
    25
100
AcDbSpline
210
0.0
220
0.0
230
1.0
 70
    24
 71
     3
 72
     8
 73
     4
 74
     0
 42
0.0000000001
 43
0.0000000001
 40
0.0
 40
0.0
 40
0.0
 40
0.0
 40
1.0
 40
1.0
 40
1.0
 40
1.0
 10
435.4994
 20
31.1386
 30
0.0
 10
435.4994
 20
31.1386
 30
0.0
 10
435.4994
 20
32.2605
 30
0.0
 10
435.4994
 20
32.2605
 30
0.0
  0
SPLINE
  5
189
330
1F
100
AcDbEntity
  8
DEFPOINTS
370
    25
100
AcDbSpline
210
0.0
220
0.0
230
1.0
 70
    24
 71
     3
 72
     8
 73
     4
 74
     0
 42
0.0000000001
 43
0.0000000001
 40
0.0
 40
0.0
 40
0.0
 40
0.0
 40
1.0
 40
1.0
 40
1.0
 40
1.0
 10
435.4994
 20
32.8108
 30
0.0
 10
435.4994
 20
32.8108
 30
0.0
 10
435.4994
 20
33.9326
 30
0.0
 10
435.4994
 20
33.9326
 30
0.0
  0
SPLINE
  5
18A
330
1F
100
AcDbEntity
  8
DEFPOINTS
370
    25
100
AcDbSpline
210
0.0
220
0.0
230
1.0
 70
    24
 71
     3
 72
     8
 73
     4
 74
     0
 42
0.0000000001
 43
0.0000000001
 40
0.0
 40
0.0
 40
0.0
 40
0.0
 40
1.0
 40
1.0
 40
1.0
 40
1.0
 10
435.4994
 20
34.5041
 30
0.0
 10
435.4994
 20
34.5041
 30
0.0
 10
435.4994
 20
35.626
 30
0.0
 10
435.4994
 20
35.626
 30
0.0
  0
SPLINE
  5
18B
330
1F
100
AcDbEntity
  8
DEFPOINTS
370
    25
100
AcDbSpline
210
0.0
220
0.0
230
1.0
 70
    24
 71
     3
 72
     8
 73
     4
 74
     0
 42
0.0000000001
 43
0.0000000001
 40
0.0
 40
0.0
 40
0.0
 40
0.0
 40
1.0
 40
1.0
 40
1.0
 40
1.0
 10
435.4994
 20
36.1763
 30
0.0
 10
435.4994
 20
36.1763
 30
0.0
 10
435.4994
 20
37.2981
 30
0.0
 10
435.4994
 20
37.2981
 30
0.0
  0
SPLINE
  5
18C
330
1F
100
AcDbEntity
  8
DEFPOINTS
370
    25
100
AcDbSpline
210
0.0
220
0.0
230
1.0
 70
    24
 71
     3
 72
     8
 73
     4
 74
     0
 42
0.0000000001
 43
0.0000000001
 40
0.0
 40
0.0
 40
0.0
 40
0.0
 40
1.0
 40
1.0
 40
1.0
 40
1.0
 10
435.4994
 20
37.8696
 30
0.0
 10
435.4994
 20
37.8696
 30
0.0
 10
435.4994
 20
38.9915
 30
0.0
 10
435.4994
 20
38.9915
 30
0.0
  0
SPLINE
  5
18D
330
1F
100
AcDbEntity
  8
DEFPOINTS
370
    25
100
AcDbSpline
210
0.0
220
0.0
230
1.0
 70
    24
 71
     3
 72
     8
 73
     4
 74
     0
 42
0.0000000001
 43
0.0000000001
 40
0.0
 40
0.0
 40
0.0
 40
0.0
 40
1.0
 40
1.0
 40
1.0
 40
1.0
 10
435.4994
 20
39.5418
 30
0.0
 10
435.4994
 20
39.5418
 30
0.0
 10
435.4994
 20
40.6848
 30
0.0
 10
435.4994
 20
40.6848
 30
0.0
  0
SPLINE
  5
18E
330
1F
100
AcDbEntity
  8
DEFPOINTS
370
    25
100
AcDbSpline
210
0.0
220
0.0
230
1.0
 70
    24
 71
     3
 72
     8
 73
     4
 74
     0
 42
0.0000000001
 43
0.0000000001
 40
0.0
 40
0.0
 40
0.0
 40
0.0
 40
1.0
 40
1.0
 40
1.0
 40
1.0
 10
435.4994
 20
41.2351
 30
0.0
 10
435.4994
 20
41.2351
 30
0.0
 10
435.4994
 20
42.357
 30
0.0
 10
435.4994
 20
42.357
 30
0.0
  0
SPLINE
  5
18F
330
1F
100
AcDbEntity
  8
DEFPOINTS
370
    25
100
AcDbSpline
210
0.0
220
0.0
230
1.0
 70
    24
 71
     3
 72
     8
 73
     4
 74
     0
 42
0.0000000001
 43
0.0000000001
 40
0.0
 40
0.0
 40
0.0
 40
0.0
 40
1.0
 40
1.0
 40
1.0
 40
1.0
 10
435.4994
 20
42.9285
 30
0.0
 10
435.4994
 20
42.9285
 30
0.0
 10
435.4994
 20
44.0503
 30
0.0
 10
435.4994
 20
44.0503
 30
0.0
  0
SPLINE
  5
190
330
1F
100
AcDbEntity
  8
DEFPOINTS
370
    25
100
AcDbSpline
210
0.0
220
0.0
230
1.0
 70
    24
 71
     3
 72
     8
 73
     4
 74
     0
 42
0.0000000001
 43
0.0000000001
 40
0.0
 40
0.0
 40
0.0
 40
0.0
 40
1.0
 40
1.0
 40
1.0
 40
1.0
 10
435.4994
 20
44.6006
 30
0.0
 10
435.4994
 20
44.6006
 30
0.0
 10
435.4994
 20
45.7225
 30
0.0
 10
435.4994
 20
45.7225
 30
0.0
  0
SPLINE
  5
191
330
1F
100
AcDbEntity
  8
DEFPOINTS
370
    25
100
AcDbSpline
210
0.0
220
0.0
230
1.0
 70
    24
 71
     3
 72
     8
 73
     4
 74
     0
 42
0.0000000001
 43
0.0000000001
 40
0.0
 40
0.0
 40
0.0
 40
0.0
 40
1.0
 40
1.0
 40
1.0
 40
1.0
 10
435.4994
 20
46.294
 30
0.0
 10
435.4994
 20
46.294
 30
0.0
 10
435.4994
 20
47.4158
 30
0.0
 10
435.4994
 20
47.4158
 30
0.0
  0
SPLINE
  5
192
330
1F
100
AcDbEntity
  8
DEFPOINTS
370
    25
100
AcDbSpline
210
0.0
220
0.0
230
1.0
 70
    24
 71
     3
 72
     8
 73
     4
 74
     0
 42
0.0000000001
 43
0.0000000001
 40
0.0
 40
0.0
 40
0.0
 40
0.0
 40
1.0
 40
1.0
 40
1.0
 40
1.0
 10
435.4994
 20
47.9661
 30
0.0
 10
435.4994
 20
47.9661
 30
0.0
 10
435.4994
 20
49.088
 30
0.0
 10
435.4994
 20
49.088
 30
0.0
  0
SPLINE
  5
193
330
1F
100
AcDbEntity
  8
DEFPOINTS
370
    25
100
AcDbSpline
210
0.0
220
0.0
230
1.0
 70
    24
 71
     3
 72
     8
 73
     4
 74
     0
 42
0.0000000001
 43
0.0000000001
 40
0.0
 40
0.0
 40
0.0
 40
0.0
 40
1.0
 40
1.0
 40
1.0
 40
1.0
 10
435.4994
 20
49.6595
 30
0.0
 10
435.4994
 20
49.6595
 30
0.0
 10
435.4994
 20
50.7813
 30
0.0
 10
435.4994
 20
50.7813
 30
0.0
  0
SPLINE
  5
194
330
1F
100
AcDbEntity
  8
DEFPOINTS
370
    25
100
AcDbSpline
210
0.0
220
0.0
230
1.0
 70
    24
 71
     3
 72
     8
 73
     4
 74
     0
 42
0.0000000001
 43
0.0000000001
 40
0.0
 40
0.0
 40
0.0
 40
0.0
 40
1.0
 40
1.0
 40
1.0
 40
1.0
 10
435.4994
 20
51.3316
 30
0.0
 10
435.4994
 20
51.3316
 30
0.0
 10
435.4994
 20
52.4535
 30
0.0
 10
435.4994
 20
52.4535
 30
0.0
  0
SPLINE
  5
195
330
1F
100
AcDbEntity
  8
DEFPOINTS
370
    25
100
AcDbSpline
210
0.0
220
0.0
230
1.0
 70
    24
 71
     3
 72
     8
 73
     4
 74
     0
 42
0.0000000001
 43
0.0000000001
 40
0.0
 40
0.0
 40
0.0
 40
0.0
 40
1.0
 40
1.0
 40
1.0
 40
1.0
 10
435.4994
 20
53.025
 30
0.0
 10
435.4994
 20
53.025
 30
0.0
 10
435.4994
 20
54.1468
 30
0.0
 10
435.4994
 20
54.1468
 30
0.0
  0
SPLINE
  5
196
330
1F
100
AcDbEntity
  8
DEFPOINTS
370
    25
100
AcDbSpline
210
0.0
220
0.0
230
1.0
 70
    24
 71
     3
 72
     8
 73
     4
 74
     0
 42
0.0000000001
 43
0.0000000001
 40
0.0
 40
0.0
 40
0.0
 40
0.0
 40
1.0
 40
1.0
 40
1.0
 40
1.0
 10
435.4994
 20
54.6971
 30
0.0
 10
435.4994
 20
54.6971
 30
0.0
 10
435.4994
 20
55.819
 30
0.0
 10
435.4994
 20
55.819
 30
0.0
  0
SPLINE
  5
197
330
1F
100
AcDbEntity
  8
DEFPOINTS
370
    25
100
AcDbSpline
210
0.0
220
0.0
230
1.0
 70
    24
 71
     3
 72
     8
 73
     4
 74
     0
 42
0.0000000001
 43
0.0000000001
 40
0.0
 40
0.0
 40
0.0
 40
0.0
 40
1.0
 40
1.0
 40
1.0
 40
1.0
 10
435.4994
 20
56.3905
 30
0.0
 10
435.4994
 20
56.3905
 30
0.0
 10
435.4994
 20
57.5123
 30
0.0
 10
435.4994
 20
57.5123
 30
0.0
  0
SPLINE
  5
198
330
1F
100
AcDbEntity
  8
DEFPOINTS
370
    25
100
AcDbSpline
210
0.0
220
0.0
230
1.0
 70
    24
 71
     3
 72
     8
 73
     4
 74
     0
 42
0.0000000001
 43
0.0000000001
 40
0.0
 40
0.0
 40
0.0
 40
0.0
 40
1.0
 40
1.0
 40
1.0
 40
1.0
 10
435.4994
 20
58.0626
 30
0.0
 10
435.4994
 20
58.0626
 30
0.0
 10
435.4994
 20
59.1845
 30
0.0
 10
435.4994
 20
59.1845
 30
0.0
  0
SPLINE
  5
199
330
1F
100
AcDbEntity
  8
DEFPOINTS
370
    25
100
AcDbSpline
210
0.0
220
0.0
230
1.0
 70
    24
 71
     3
 72
     8
 73
     4
 74
     0
 42
0.0000000001
 43
0.0000000001
 40
0.0
 40
0.0
 40
0.0
 40
0.0
 40
1.0
 40
1.0
 40
1.0
 40
1.0
 10
435.4994
 20
59.756
 30
0.0
 10
435.4994
 20
59.756
 30
0.0
 10
435.4994
 20
60.8778
 30
0.0
 10
435.4994
 20
60.8778
 30
0.0
  0
SPLINE
  5
19A
330
1F
100
AcDbEntity
  8
DEFPOINTS
370
    25
100
AcDbSpline
210
0.0
220
0.0
230
1.0
 70
    24
 71
     3
 72
     8
 73
     4
 74
     0
 42
0.0000000001
 43
0.0000000001
 40
0.0
 40
0.0
 40
0.0
 40
0.0
 40
1.0
 40
1.0
 40
1.0
 40
1.0
 10
435.4994
 20
61.4281
 30
0.0
 10
435.4994
 20
61.4281
 30
0.0
 10
435.4994
 20
62.5711
 30
0.0
 10
435.4994
 20
62.5711
 30
0.0
  0
SPLINE
  5
19B
330
1F
100
AcDbEntity
  8
DEFPOINTS
370
    25
100
AcDbSpline
210
0.0
220
0.0
230
1.0
 70
    24
 71
     3
 72
     8
 73
     4
 74
     0
 42
0.0000000001
 43
0.0000000001
 40
0.0
 40
0.0
 40
0.0
 40
0.0
 40
1.0
 40
1.0
 40
1.0
 40
1.0
 10
435.4994
 20
63.1215
 30
0.0
 10
435.4994
 20
63.1215
 30
0.0
 10
435.4994
 20
64.2433
 30
0.0
 10
435.4994
 20
64.2433
 30
0.0
  0
SPLINE
  5
19C
330
1F
100
AcDbEntity
  8
DEFPOINTS
370
    25
100
AcDbSpline
210
0.0
220
0.0
230
1.0
 70
    24
 71
     3
 72
     8
 73
     4
 74
     0
 42
0.0000000001
 43
0.0000000001
 40
0.0
 40
0.0
 40
0.0
 40
0.0
 40
1.0
 40
1.0
 40
1.0
 40
1.0
 10
435.4994
 20
64.8148
 30
0.0
 10
435.4994
 20
64.8148
 30
0.0
 10
435.4994
 20
65.9366
 30
0.0
 10
435.4994
 20
65.9366
 30
0.0
  0
SPLINE
  5
19D
330
1F
100
AcDbEntity
  8
DEFPOINTS
370
    25
100
AcDbSpline
210
0.0
220
0.0
230
1.0
 70
    24
 71
     3
 72
     8
 73
     4
 74
     0
 42
0.0000000001
 43
0.0000000001
 40
0.0
 40
0.0
 40
0.0
 40
0.0
 40
1.0
 40
1.0
 40
1.0
 40
1.0
 10
435.4994
 20
66.487
 30
0.0
 10
435.4994
 20
66.487
 30
0.0
 10
435.4994
 20
67.6088
 30
0.0
 10
435.4994
 20
67.6088
 30
0.0
  0
SPLINE
  5
19E
330
1F
100
AcDbEntity
  8
DEFPOINTS
370
    25
100
AcDbSpline
210
0.0
220
0.0
230
1.0
 70
    24
 71
     3
 72
     8
 73
     4
 74
     0
 42
0.0000000001
 43
0.0000000001
 40
0.0
 40
0.0
 40
0.0
 40
0.0
 40
1.0
 40
1.0
 40
1.0
 40
1.0
 10
435.4994
 20
68.1803
 30
0.0
 10
435.4994
 20
68.1803
 30
0.0
 10
435.4994
 20
69.3021
 30
0.0
 10
435.4994
 20
69.3021
 30
0.0
  0
SPLINE
  5
19F
330
1F
100
AcDbEntity
  8
DEFPOINTS
370
    25
100
AcDbSpline
210
0.0
220
0.0
230
1.0
 70
    24
 71
     3
 72
     8
 73
     4
 74
     0
 42
0.0000000001
 43
0.0000000001
 40
0.0
 40
0.0
 40
0.0
 40
0.0
 40
1.0
 40
1.0
 40
1.0
 40
1.0
 10
435.4994
 20
69.8525
 30
0.0
 10
435.4994
 20
69.8525
 30
0.0
 10
435.4994
 20
70.9743
 30
0.0
 10
435.4994
 20
70.9743
 30
0.0
  0
SPLINE
  5
1A0
330
1F
100
AcDbEntity
  8
DEFPOINTS
370
    25
100
AcDbSpline
210
0.0
220
0.0
230
1.0
 70
    24
 71
     3
 72
     8
 73
     4
 74
     0
 42
0.0000000001
 43
0.0000000001
 40
0.0
 40
0.0
 40
0.0
 40
0.0
 40
1.0
 40
1.0
 40
1.0
 40
1.0
 10
435.4994
 20
71.5458
 30
0.0
 10
435.4994
 20
71.5458
 30
0.0
 10
435.4994
 20
72.6676
 30
0.0
 10
435.4994
 20
72.6676
 30
0.0
  0
SPLINE
  5
1A1
330
1F
100
AcDbEntity
  8
DEFPOINTS
370
    25
100
AcDbSpline
210
0.0
220
0.0
230
1.0
 70
    24
 71
     3
 72
     8
 73
     4
 74
     0
 42
0.0000000001
 43
0.0000000001
 40
0.0
 40
0.0
 40
0.0
 40
0.0
 40
1.0
 40
1.0
 40
1.0
 40
1.0
 10
435.4994
 20
73.218
 30
0.0
 10
435.4994
 20
73.218
 30
0.0
 10
435.4994
 20
74.3398
 30
0.0
 10
435.4994
 20
74.3398
 30
0.0
  0
SPLINE
  5
1A2
330
1F
100
AcDbEntity
  8
DEFPOINTS
370
    25
100
AcDbSpline
210
0.0
220
0.0
230
1.0
 70
    24
 71
     3
 72
     8
 73
     4
 74
     0
 42
0.0000000001
 43
0.0000000001
 40
0.0
 40
0.0
 40
0.0
 40
0.0
 40
1.0
 40
1.0
 40
1.0
 40
1.0
 10
435.4994
 20
74.9113
 30
0.0
 10
435.4994
 20
74.9113
 30
0.0
 10
435.4994
 20
76.0331
 30
0.0
 10
435.4994
 20
76.0331
 30
0.0
  0
SPLINE
  5
1A3
330
1F
100
AcDbEntity
  8
DEFPOINTS
370
    25
100
AcDbSpline
210
0.0
220
0.0
230
1.0
 70
    24
 71
     3
 72
     8
 73
     4
 74
     0
 42
0.0000000001
 43
0.0000000001
 40
0.0
 40
0.0
 40
0.0
 40
0.0
 40
1.0
 40
1.0
 40
1.0
 40
1.0
 10
435.4994
 20
76.5835
 30
0.0
 10
435.4994
 20
76.5835
 30
0.0
 10
435.4994
 20
77.7053
 30
0.0
 10
435.4994
 20
77.7053
 30
0.0
  0
SPLINE
  5
1A4
330
1F
100
AcDbEntity
  8
DEFPOINTS
370
    25
100
AcDbSpline
210
0.0
220
0.0
230
1.0
 70
    24
 71
     3
 72
     8
 73
     4
 74
     0
 42
0.0000000001
 43
0.0000000001
 40
0.0
 40
0.0
 40
0.0
 40
0.0
 40
1.0
 40
1.0
 40
1.0
 40
1.0
 10
435.4994
 20
78.2768
 30
0.0
 10
435.4994
 20
78.2768
 30
0.0
 10
435.4994
 20
79.3986
 30
0.0
 10
435.4994
 20
79.3986
 30
0.0
  0
SPLINE
  5
1A5
330
1F
100
AcDbEntity
  8
DEFPOINTS
370
    25
100
AcDbSpline
210
0.0
220
0.0
230
1.0
 70
    24
 71
     3
 72
     8
 73
     4
 74
     0
 42
0.0000000001
 43
0.0000000001
 40
0.0
 40
0.0
 40
0.0
 40
0.0
 40
1.0
 40
1.0
 40
1.0
 40
1.0
 10
435.4994
 20
79.949
 30
0.0
 10
435.4994
 20
79.949
 30
0.0
 10
435.4994
 20
81.346
 30
0.0
 10
435.4994
 20
81.346
 30
0.0
  0
SPLINE
  5
1A6
330
1F
100
AcDbEntity
  8
DEFPOINTS
370
    25
100
AcDbSpline
210
0.0
220
0.0
230
1.0
 70
    24
 71
     3
 72
     8
 73
     4
 74
     0
 42
0.0000000001
 43
0.0000000001
 40
0.0
 40
0.0
 40
0.0
 40
0.0
 40
1.0
 40
1.0
 40
1.0
 40
1.0
 10
435.0549
 20
12.3638
 30
0.0
 10
435.0549
 20
12.3638
 30
0.0
 10
435.0549
 20
81.7905
 30
0.0
 10
435.0549
 20
81.7905
 30
0.0
  0
SPLINE
  5
1A7
330
1F
100
AcDbEntity
  8
DEFPOINTS
370
    25
100
AcDbSpline
210
0.0
220
0.0
230
1.0
 70
     8
 71
     3
 72
     8
 73
     4
 74
     0
 42
0.0000000001
 43
0.0000000001
 40
0.0
 40
0.0
 40
0.0
 40
0.0
 40
1.0
 40
1.0
 40
1.0
 40
1.0
 10
437.2986
 20
84.0341
 30
0.0
 10
436.078
 20
84.0518
 30
0.0
 10
435.0373
 20
83.0111
 30
0.0
 10
435.0549
 20
81.7905
 30
0.0
  0
SPLINE
  5
1A8
330
1F
100
AcDbEntity
  8
DEFPOINTS
370
    25
100
AcDbSpline
210
0.0
220
0.0
230
1.0
 70
     8
 71
     3
 72
    12
 73
     8
 74
     0
 42
0.0000000001
 43
0.0000000001
 40
0.0
 40
0.0
 40
0.0
 40
0.0
 40
0.5
 40
0.5
 40
0.5
 40
0.5
 40
1.0
 40
1.0
 40
1.0
 40
1.0
 10
437.7431
 20
83.5896
 30
0.0
 10
437.7431
 20
83.5896
 30
0.0
 10
437.2986
 20
83.5473
 30
0.0
 10
437.2986
 20
83.5473
 30
0.0
 10
437.2986
 20
83.5473
 30
0.0
 10
437.2986
 20
83.5473
 30
0.0
 10
437.1081
 20
83.4838
 30
0.0
 10
437.1081
 20
83.4838
 30
0.0
  0
SPLINE
  5
1A9
330
1F
100
AcDbEntity
  8
DEFPOINTS
370
    25
100
AcDbSpline
210
0.0
220
0.0
230
1.0
 70
     8
 71
     3
 72
    20
 73
    16
 74
     0
 42
0.0000000001
 43
0.0000000001
 40
0.0
 40
0.0
 40
0.0
 40
0.0
 40
0.25
 40
0.25
 40
0.25
 40
0.25
 40
0.5
 40
0.5
 40
0.5
 40
0.5
 40
0.75
 40
0.75
 40
0.75
 40
0.75
 40
1.0
 40
1.0
 40
1.0
 40
1.0
 10
436.6001
 20
83.2721
 30
0.0
 10
436.6001
 20
83.2721
 30
0.0
 10
436.4943
 20
83.2086
 30
0.0
 10
436.4943
 20
83.2086
 30
0.0
 10
436.4943
 20
83.2086
 30
0.0
 10
436.4943
 20
83.2086
 30
0.0
 10
436.1556
 20
82.9335
 30
0.0
 10
436.1556
 20
82.9335
 30
0.0
 10
436.1556
 20
82.9335
 30
0.0
 10
436.1556
 20
82.9335
 30
0.0
 10
435.8804
 20
82.5948
 30
0.0
 10
435.8804
 20
82.5948
 30
0.0
 10
435.8804
 20
82.5948
 30
0.0
 10
435.8804
 20
82.5948
 30
0.0
 10
435.8169
 20
82.489
 30
0.0
 10
435.8169
 20
82.489
 30
0.0
  0
SPLINE
  5
1AA
330
1F
100
AcDbEntity
  8
DEFPOINTS
370
    25
100
AcDbSpline
210
0.0
220
0.0
230
1.0
 70
     8
 71
     3
 72
    12
 73
     8
 74
     0
 42
0.0000000001
 43
0.0000000001
 40
0.0
 40
0.0
 40
0.0
 40
0.0
 40
0.5
 40
0.5
 40
0.5
 40
0.5
 40
1.0
 40
1.0
 40
1.0
 40
1.0
 10
435.6053
 20
81.9598
 30
0.0
 10
435.6053
 20
81.9598
 30
0.0
 10
435.5418
 20
81.7693
 30
0.0
 10
435.5418
 20
81.7693
 30
0.0
 10
435.5418
 20
81.7693
 30
0.0
 10
435.5418
 20
81.7693
 30
0.0
 10
435.4994
 20
81.346
 30
0.0
 10
435.4994
 20
81.346
 30
0.0
  0
SPLINE
  5
1AB
330
1F
100
AcDbEntity
  8
DEFPOINTS
370
    25
100
AcDbSpline
210
0.0
220
0.0
230
1.0
 70
     8
 71
     3
 72
    12
 73
     8
 74
     0
 42
0.0000000001
 43
0.0000000001
 40
0.0
 40
0.0
 40
0.0
 40
0.0
 40
0.5
 40
0.5
 40
0.5
 40
0.5
 40
1.0
 40
1.0
 40
1.0
 40
1.0
 10
438.1876
 20
83.1451
 30
0.0
 10
438.1876
 20
83.1451
 30
0.0
 10
437.7431
 20
83.1028
 30
0.0
 10
437.7431
 20
83.1028
 30
0.0
 10
437.7431
 20
83.1028
 30
0.0
 10
437.7431
 20
83.1028
 30
0.0
 10
437.5738
 20
83.0393
 30
0.0
 10
437.5738
 20
83.0393
 30
0.0
  0
SPLINE
  5
1AC
330
1F
100
AcDbEntity
  8
DEFPOINTS
370
    25
100
AcDbSpline
210
0.0
220
0.0
230
1.0
 70
     8
 71
     3
 72
    20
 73
    16
 74
     0
 42
0.0000000001
 43
0.0000000001
 40
0.0
 40
0.0
 40
0.0
 40
0.0
 40
0.25
 40
0.25
 40
0.25
 40
0.25
 40
0.5
 40
0.5
 40
0.5
 40
0.5
 40
0.75
 40
0.75
 40
0.75
 40
0.75
 40
1.0
 40
1.0
 40
1.0
 40
1.0
 10
437.0446
 20
82.8065
 30
0.0
 10
437.0446
 20
82.8065
 30
0.0
 10
436.9388
 20
82.7641
 30
0.0
 10
436.9388
 20
82.7641
 30
0.0
 10
436.9388
 20
82.7641
 30
0.0
 10
436.9388
 20
82.7641
 30
0.0
 10
436.6001
 20
82.489
 30
0.0
 10
436.6001
 20
82.489
 30
0.0
 10
436.6001
 20
82.489
 30
0.0
 10
436.6001
 20
82.489
 30
0.0
 10
436.3249
 20
82.1291
 30
0.0
 10
436.3249
 20
82.1291
 30
0.0
 10
436.3249
 20
82.1291
 30
0.0
 10
436.3249
 20
82.1291
 30
0.0
 10
436.2614
 20
82.0233
 30
0.0
 10
436.2614
 20
82.0233
 30
0.0
  0
SPLINE
  5
1AD
330
1F
100
AcDbEntity
  8
DEFPOINTS
370
    25
100
AcDbSpline
210
0.0
220
0.0
230
1.0
 70
     8
 71
     3
 72
    12
 73
     8
 74
     0
 42
0.0000000001
 43
0.0000000001
 40
0.0
 40
0.0
 40
0.0
 40
0.0
 40
0.5
 40
0.5
 40
0.5
 40
0.5
 40
1.0
 40
1.0
 40
1.0
 40
1.0
 10
436.0498
 20
81.5153
 30
0.0
 10
436.0498
 20
81.5153
 30
0.0
 10
435.9863
 20
81.3248
 30
0.0
 10
435.9863
 20
81.3248
 30
0.0
 10
435.9863
 20
81.3248
 30
0.0
 10
435.9863
 20
81.3248
 30
0.0
 10
435.9439
 20
80.9015
 30
0.0
 10
435.9439
 20
80.9015
 30
0.0
  0
SPLINE
  5
1AE
330
1F
100
AcDbEntity
  8
DEFPOINTS
370
    25
100
AcDbSpline
210
0.0
220
0.0
230
1.0
 70
     8
 71
     3
 72
     8
 73
     4
 74
     0
 42
0.0000000001
 43
0.0000000001
 40
0.0
 40
0.0
 40
0.0
 40
0.0
 40
1.0
 40
1.0
 40
1.0
 40
1.0
 10
558.0544
 20
81.7905
 30
0.0
 10
558.0668
 20
83.0277
 30
0.0
 10
557.0398
 20
84.031
 30
0.0
 10
555.8108
 20
84.0341
 30
0.0
  0
SPLINE
  5
1AF
330
1F
100
AcDbEntity
  8
DEFPOINTS
370
    25
100
AcDbSpline
210
0.0
220
0.0
230
1.0
 70
     8
 71
     3
 72
    12
 73
     8
 74
     0
 42
0.0000000001
 43
0.0000000001
 40
0.0
 40
0.0
 40
0.0
 40
0.0
 40
0.5
 40
0.5
 40
0.5
 40
0.5
 40
1.0
 40
1.0
 40
1.0
 40
1.0
 10
557.6099
 20
81.346
 30
0.0
 10
557.6099
 20
81.346
 30
0.0
 10
557.5676
 20
81.7693
 30
0.0
 10
557.5676
 20
81.7693
 30
0.0
 10
557.5676
 20
81.7693
 30
0.0
 10
557.5676
 20
81.7693
 30
0.0
 10
557.5041
 20
81.9598
 30
0.0
 10
557.5041
 20
81.9598
 30
0.0
  0
SPLINE
  5
1B0
330
1F
100
AcDbEntity
  8
DEFPOINTS
370
    25
100
AcDbSpline
210
0.0
220
0.0
230
1.0
 70
     8
 71
     3
 72
    20
 73
    16
 74
     0
 42
0.0000000001
 43
0.0000000001
 40
0.0
 40
0.0
 40
0.0
 40
0.0
 40
0.25
 40
0.25
 40
0.25
 40
0.25
 40
0.5
 40
0.5
 40
0.5
 40
0.5
 40
0.75
 40
0.75
 40
0.75
 40
0.75
 40
1.0
 40
1.0
 40
1.0
 40
1.0
 10
557.2713
 20
82.489
 30
0.0
 10
557.2713
 20
82.489
 30
0.0
 10
557.2289
 20
82.5948
 30
0.0
 10
557.2289
 20
82.5948
 30
0.0
 10
557.2289
 20
82.5948
 30
0.0
 10
557.2289
 20
82.5948
 30
0.0
 10
556.9538
 20
82.9335
 30
0.0
 10
556.9538
 20
82.9335
 30
0.0
 10
556.9538
 20
82.9335
 30
0.0
 10
556.9538
 20
82.9335
 30
0.0
 10
556.5939
 20
83.2086
 30
0.0
 10
556.5939
 20
83.2086
 30
0.0
 10
556.5939
 20
83.2086
 30
0.0
 10
556.5939
 20
83.2086
 30
0.0
 10
556.4881
 20
83.2721
 30
0.0
 10
556.4881
 20
83.2721
 30
0.0
  0
SPLINE
  5
1B1
330
1F
100
AcDbEntity
  8
DEFPOINTS
370
    25
100
AcDbSpline
210
0.0
220
0.0
230
1.0
 70
     8
 71
     3
 72
    12
 73
     8
 74
     0
 42
0.0000000001
 43
0.0000000001
 40
0.0
 40
0.0
 40
0.0
 40
0.0
 40
0.5
 40
0.5
 40
0.5
 40
0.5
 40
1.0
 40
1.0
 40
1.0
 40
1.0
 10
555.9801
 20
83.4838
 30
0.0
 10
555.9801
 20
83.4838
 30
0.0
 10
555.7896
 20
83.5473
 30
0.0
 10
555.7896
 20
83.5473
 30
0.0
 10
555.7896
 20
83.5473
 30
0.0
 10
555.7896
 20
83.5473
 30
0.0
 10
555.3663
 20
83.5896
 30
0.0
 10
555.3663
 20
83.5896
 30
0.0
  0
SPLINE
  5
1B2
330
1F
100
AcDbEntity
  8
DEFPOINTS
370
    25
100
AcDbSpline
210
0.0
220
0.0
230
1.0
 70
     8
 71
     3
 72
    12
 73
     8
 74
     0
 42
0.0000000001
 43
0.0000000001
 40
0.0
 40
0.0
 40
0.0
 40
0.0
 40
0.5
 40
0.5
 40
0.5
 40
0.5
 40
1.0
 40
1.0
 40
1.0
 40
1.0
 10
557.1443
 20
80.9015
 30
0.0
 10
557.1443
 20
80.9015
 30
0.0
 10
557.1019
 20
81.3248
 30
0.0
 10
557.1019
 20
81.3248
 30
0.0
 10
557.1019
 20
81.3248
 30
0.0
 10
557.1019
 20
81.3248
 30
0.0
 10
557.0596
 20
81.5153
 30
0.0
 10
557.0596
 20
81.5153
 30
0.0
  0
SPLINE
  5
1B3
330
1F
100
AcDbEntity
  8
DEFPOINTS
370
    25
100
AcDbSpline
210
0.0
220
0.0
230
1.0
 70
     8
 71
     3
 72
    20
 73
    16
 74
     0
 42
0.0000000001
 43
0.0000000001
 40
0.0
 40
0.0
 40
0.0
 40
0.0
 40
0.25
 40
0.25
 40
0.25
 40
0.25
 40
0.5
 40
0.5
 40
0.5
 40
0.5
 40
0.75
 40
0.75
 40
0.75
 40
0.75
 40
1.0
 40
1.0
 40
1.0
 40
1.0
 10
556.8268
 20
82.0233
 30
0.0
 10
556.8268
 20
82.0233
 30
0.0
 10
556.7844
 20
82.1291
 30
0.0
 10
556.7844
 20
82.1291
 30
0.0
 10
556.7844
 20
82.1291
 30
0.0
 10
556.7844
 20
82.1291
 30
0.0
 10
556.4881
 20
82.489
 30
0.0
 10
556.4881
 20
82.489
 30
0.0
 10
556.4881
 20
82.489
 30
0.0
 10
556.4881
 20
82.489
 30
0.0
 10
556.1494
 20
82.7641
 30
0.0
 10
556.1494
 20
82.7641
 30
0.0
 10
556.1494
 20
82.7641
 30
0.0
 10
556.1494
 20
82.7641
 30
0.0
 10
556.0436
 20
82.8065
 30
0.0
 10
556.0436
 20
82.8065
 30
0.0
  0
SPLINE
  5
1B4
330
1F
100
AcDbEntity
  8
DEFPOINTS
370
    25
100
AcDbSpline
210
0.0
220
0.0
230
1.0
 70
     8
 71
     3
 72
    12
 73
     8
 74
     0
 42
0.0000000001
 43
0.0000000001
 40
0.0
 40
0.0
 40
0.0
 40
0.0
 40
0.5
 40
0.5
 40
0.5
 40
0.5
 40
1.0
 40
1.0
 40
1.0
 40
1.0
 10
555.5356
 20
83.0393
 30
0.0
 10
555.5356
 20
83.0393
 30
0.0
 10
555.3451
 20
83.1028
 30
0.0
 10
555.3451
 20
83.1028
 30
0.0
 10
555.3451
 20
83.1028
 30
0.0
 10
555.3451
 20
83.1028
 30
0.0
 10
554.9006
 20
83.1451
 30
0.0
 10
554.9006
 20
83.1451
 30
0.0
  0
SPLINE
  5
1B5
330
1F
100
AcDbEntity
  8
DEFPOINTS
370
    25
100
AcDbSpline
210
0.0
220
0.0
230
1.0
 70
    24
 71
     3
 72
     8
 73
     4
 74
     0
 42
0.0000000001
 43
0.0000000001
 40
0.0
 40
0.0
 40
0.0
 40
0.0
 40
1.0
 40
1.0
 40
1.0
 40
1.0
 10
435.0549
 20
12.3638
 30
0.0
 10
435.0549
 20
12.3638
 30
0.0
 10
435.4994
 20
12.3638
 30
0.0
 10
435.4994
 20
12.3638
 30
0.0
  0
SPLINE
  5
1B6
330
1F
100
AcDbEntity
  8
DEFPOINTS
370
    25
100
AcDbSpline
210
0.0
220
0.0
230
1.0
 70
    24
 71
     3
 72
     8
 73
     4
 74
     0
 42
0.0000000001
 43
0.0000000001
 40
0.0
 40
0.0
 40
0.0
 40
0.0
 40
1.0
 40
1.0
 40
1.0
 40
1.0
 10
557.6099
 20
12.3638
 30
0.0
 10
557.6099
 20
12.3638
 30
0.0
 10
558.0544
 20
12.3638
 30
0.0
 10
558.0544
 20
12.3638
 30
0.0
  0
SPLINE
  5
1B7
330
1F
100
AcDbEntity
  8
DEFPOINTS
370
    25
100
AcDbSpline
210
0.0
220
0.0
230
1.0
 70
    24
 71
     3
 72
     8
 73
     4
 74
     0
 42
0.0000000001
 43
0.0000000001
 40
0.0
 40
0.0
 40
0.0
 40
0.0
 40
1.0
 40
1.0
 40
1.0
 40
1.0
 10
553.1649
 20
83.1451
 30
0.0
 10
553.1649
 20
83.1451
 30
0.0
 10
567.0079
 20
83.1451
 30
0.0
 10
567.0079
 20
83.1451
 30
0.0
  0
SPLINE
  5
1B8
330
1F
100
AcDbEntity
  8
DEFPOINTS
370
    25
100
AcDbSpline
210
0.0
220
0.0
230
1.0
 70
    24
 71
     3
 72
     8
 73
     4
 74
     0
 42
0.0000000001
 43
0.0000000001
 40
0.0
 40
0.0
 40
0.0
 40
0.0
 40
1.0
 40
1.0
 40
1.0
 40
1.0
 10
553.1649
 20
12.3638
 30
0.0
 10
553.1649
 20
12.3638
 30
0.0
 10
567.0079
 20
12.3638
 30
0.0
 10
567.0079
 20
12.3638
 30
0.0
  0
SPLINE
  5
1B9
330
1F
100
AcDbEntity
  8
DEFPOINTS
370
    25
100
AcDbSpline
210
0.0
220
0.0
230
1.0
 70
    24
 71
     3
 72
     8
 73
     4
 74
     0
 42
0.0000000001
 43
0.0000000001
 40
0.0
 40
0.0
 40
0.0
 40
0.0
 40
1.0
 40
1.0
 40
1.0
 40
1.0
 10
565.1453
 20
79.3986
 30
0.0
 10
565.1453
 20
79.3986
 30
0.0
 10
565.1453
 20
16.0891
 30
0.0
 10
565.1453
 20
16.0891
 30
0.0
  0
SPLINE
  5
1BA
330
1F
100
AcDbEntity
  8
DEFPOINTS
100
AcDbSpline
210
0.0
220
0.0
230
1.0
 70
    11
 71
     3
 72
    16
 73
    12
 74
     0
 42
0.0000000001
 43
0.0000000001
 40
0.0
 40
0.0
 40
0.0
 40
0.0
 40
0.3333333333333333
 40
0.3333333333333333
 40
0.3333333333333333
 40
0.3333333333333333
 40
0.6666666666666666
 40
0.6666666666666666
 40
0.6666666666666666
 40
0.6666666666666666
 40
1.0
 40
1.0
 40
1.0
 40
1.0
 10
564.5103
 20
79.3986
 30
0.0
 10
564.5103
 20
79.3986
 30
0.0
 10
565.7591
 20
79.3986
 30
0.0
 10
565.7591
 20
79.3986
 30
0.0
 10
565.7591
 20
79.3986
 30
0.0
 10
565.7591
 20
79.3986
 30
0.0
 10
565.1453
 20
83.1451
 30
0.0
 10
565.1453
 20
83.1451
 30
0.0
 10
565.1453
 20
83.1451
 30
0.0
 10
565.1453
 20
83.1451
 30
0.0
 10
564.5103
 20
79.3986
 30
0.0
 10
564.5103
 20
79.3986
 30
0.0
  0
SPLINE
  5
1BB
330
1F
100
AcDbEntity
  8
DEFPOINTS
100
AcDbSpline
210
0.0
220
0.0
230
1.0
 70
    11
 71
     3
 72
    16
 73
    12
 74
     0
 42
0.0000000001
 43
0.0000000001
 40
0.0
 40
0.0
 40
0.0
 40
0.0
 40
0.3333333333333333
 40
0.3333333333333333
 40
0.3333333333333333
 40
0.3333333333333333
 40
0.6666666666666666
 40
0.6666666666666666
 40
0.6666666666666666
 40
0.6666666666666666
 40
1.0
 40
1.0
 40
1.0
 40
1.0
 10
564.5103
 20
16.0891
 30
0.0
 10
564.5103
 20
16.0891
 30
0.0
 10
565.7591
 20
16.0891
 30
0.0
 10
565.7591
 20
16.0891
 30
0.0
 10
565.7591
 20
16.0891
 30
0.0
 10
565.7591
 20
16.0891
 30
0.0
 10
565.1453
 20
12.3638
 30
0.0
 10
565.1453
 20
12.3638
 30
0.0
 10
565.1453
 20
12.3638
 30
0.0
 10
565.1453
 20
12.3638
 30
0.0
 10
564.5103
 20
16.0891
 30
0.0
 10
564.5103
 20
16.0891
 30
0.0
  0
SPLINE
  5
1BC
330
1F
100
AcDbEntity
  8
DEFPOINTS
370
    25
100
AcDbSpline
210
0.0
220
0.0
230
1.0
 70
     8
 71
     3
 72
    12
 73
     8
 74
     0
 42
0.0000000001
 43
0.0000000001
 40
0.0
 40
0.0
 40
0.0
 40
0.0
 40
0.5
 40
0.5
 40
0.5
 40
0.5
 40
1.0
 40
1.0
 40
1.0
 40
1.0
 10
561.2506
 20
44.7065
 30
0.0
 10
561.2506
 20
44.7065
 30
0.0
 10
563.7483
 20
42.9285
 30
0.0
 10
563.7483
 20
42.9285
 30
0.0
 10
563.7483
 20
42.9285
 30
0.0
 10
563.7483
 20
42.9285
 30
0.0
 10
563.7483
 20
45.6166
 30
0.0
 10
563.7483
 20
45.6166
 30
0.0
  0
SPLINE
  5
1BD
330
1F
100
AcDbEntity
  8
DEFPOINTS
370
    25
100
AcDbSpline
210
0.0
220
0.0
230
1.0
 70
    24
 71
     3
 72
     8
 73
     4
 74
     0
 42
0.0000000001
 43
0.0000000001
 40
0.0
 40
0.0
 40
0.0
 40
0.0
 40
1.0
 40
1.0
 40
1.0
 40
1.0
 10
561.2506
 20
44.7065
 30
0.0
 10
561.2506
 20
44.7065
 30
0.0
 10
564.9971
 20
44.7065
 30
0.0
 10
564.9971
 20
44.7065
 30
0.0
  0
SPLINE
  5
1BE
330
1F
100
AcDbEntity
  8
DEFPOINTS
370
    25
100
AcDbSpline
210
0.0
220
0.0
230
1.0
 70
     8
 71
     3
 72
    12
 73
     8
 74
     0
 42
0.0000000001
 43
0.0000000001
 40
0.0
 40
0.0
 40
0.0
 40
0.0
 40
0.5
 40
0.5
 40
0.5
 40
0.5
 40
1.0
 40
1.0
 40
1.0
 40
1.0
 10
561.2506
 20
46.5056
 30
0.0
 10
561.2506
 20
46.5056
 30
0.0
 10
561.2506
 20
48.9821
 30
0.0
 10
561.2506
 20
48.9821
 30
0.0
 10
561.2506
 20
48.9821
 30
0.0
 10
561.2506
 20
48.9821
 30
0.0
 10
564.9971
 20
47.2041
 30
0.0
 10
564.9971
 20
47.2041
 30
0.0
  0
SPLINE
  5
1BF
330
1F
100
AcDbEntity
  8
DEFPOINTS
370
    25
100
AcDbSpline
210
0.0
220
0.0
230
1.0
 70
     8
 71
     3
 72
    60
 73
    56
 74
     0
 42
0.0000000001
 43
0.0000000001
 40
0.0
 40
0.0
 40
0.0
 40
0.0
 40
0.0714285714285714
 40
0.0714285714285714
 40
0.0714285714285714
 40
0.0714285714285714
 40
0.1428571428571428
 40
0.1428571428571428
 40
0.1428571428571428
 40
0.1428571428571428
 40
0.2142857142857143
 40
0.2142857142857143
 40
0.2142857142857143
 40
0.2142857142857143
 40
0.2857142857142857
 40
0.2857142857142857
 40
0.2857142857142857
 40
0.2857142857142857
 40
0.3571428571428571
 40
0.3571428571428571
 40
0.3571428571428571
 40
0.3571428571428571
 40
0.4285714285714285
 40
0.4285714285714285
 40
0.4285714285714285
 40
0.4285714285714285
 40
0.4999999999999999
 40
0.4999999999999999
 40
0.4999999999999999
 40
0.4999999999999999
 40
0.5714285714285713
 40
0.5714285714285713
 40
0.5714285714285713
 40
0.5714285714285713
 40
0.6428571428571427
 40
0.6428571428571427
 40
0.6428571428571427
 40
0.6428571428571427
 40
0.7142857142857141
 40
0.7142857142857141
 40
0.7142857142857141
 40
0.7142857142857141
 40
0.7857142857142855
 40
0.7857142857142855
 40
0.7857142857142855
 40
0.7857142857142855
 40
0.8571428571428569
 40
0.8571428571428569
 40
0.8571428571428569
 40
0.8571428571428569
 40
0.9285714285714283
 40
0.9285714285714283
 40
0.9285714285714283
 40
0.9285714285714283
 40
1.0
 40
1.0
 40
1.0
 40
1.0
 10
561.2506
 20
50.4215
 30
0.0
 10
561.2506
 20
50.4215
 30
0.0
 10
561.2506
 20
52.3688
 30
0.0
 10
561.2506
 20
52.3688
 30
0.0
 10
561.2506
 20
52.3688
 30
0.0
 10
561.2506
 20
52.3688
 30
0.0
 10
562.6688
 20
51.3105
 30
0.0
 10
562.6688
 20
51.3105
 30
0.0
 10
562.6688
 20
51.3105
 30
0.0
 10
562.6688
 20
51.3105
 30
0.0
 10
562.6688
 20
51.8396
 30
0.0
 10
562.6688
 20
51.8396
 30
0.0
 10
562.6688
 20
51.8396
 30
0.0
 10
562.6688
 20
51.8396
 30
0.0
 10
562.8593
 20
52.1995
 30
0.0
 10
562.8593
 20
52.1995
 30
0.0
 10
562.8593
 20
52.1995
 30
0.0
 10
562.8593
 20
52.1995
 30
0.0
 10
563.0286
 20
52.3688
 30
0.0
 10
563.0286
 20
52.3688
 30
0.0
 10
563.0286
 20
52.3688
 30
0.0
 10
563.0286
 20
52.3688
 30
0.0
 10
563.5789
 20
52.5593
 30
0.0
 10
563.5789
 20
52.5593
 30
0.0
 10
563.5789
 20
52.5593
 30
0.0
 10
563.5789
 20
52.5593
 30
0.0
 10
563.9176
 20
52.5593
 30
0.0
 10
563.9176
 20
52.5593
 30
0.0
 10
563.9176
 20
52.5593
 30
0.0
 10
563.9176
 20
52.5593
 30
0.0
 10
564.4679
 20
52.3688
 30
0.0
 10
564.4679
 20
52.3688
 30
0.0
 10
564.4679
 20
52.3688
 30
0.0
 10
564.4679
 20
52.3688
 30
0.0
 10
564.8066
 20
52.0301
 30
0.0
 10
564.8066
 20
52.0301
 30
0.0
 10
564.8066
 20
52.0301
 30
0.0
 10
564.8066
 20
52.0301
 30
0.0
 10
564.9971
 20
51.4798
 30
0.0
 10
564.9971
 20
51.4798
 30
0.0
 10
564.9971
 20
51.4798
 30
0.0
 10
564.9971
 20
51.4798
 30
0.0
 10
564.9971
 20
50.9506
 30
0.0
 10
564.9971
 20
50.9506
 30
0.0
 10
564.9971
 20
50.9506
 30
0.0
 10
564.9971
 20
50.9506
 30
0.0
 10
564.8066
 20
50.4215
 30
0.0
 10
564.8066
 20
50.4215
 30
0.0
 10
564.8066
 20
50.4215
 30
0.0
 10
564.8066
 20
50.4215
 30
0.0
 10
564.6373
 20
50.231
 30
0.0
 10
564.6373
 20
50.231
 30
0.0
 10
564.6373
 20
50.231
 30
0.0
 10
564.6373
 20
50.231
 30
0.0
 10
564.2774
 20
50.0616
 30
0.0
 10
564.2774
 20
50.0616
 30
0.0
  0
SPLINE
  5
1C0
330
1F
100
AcDbEntity
  8
DEFPOINTS
370
    25
100
AcDbSpline
210
0.0
220
0.0
230
1.0
 70
    24
 71
     3
 72
     8
 73
     4
 74
     0
 42
0.0000000001
 43
0.0000000001
 40
0.0
 40
0.0
 40
0.0
 40
0.0
 40
1.0
 40
1.0
 40
1.0
 40
1.0
 10
554.5408
 20
83.5896
 30
0.0
 10
554.5408
 20
83.5896
 30
0.0
 10
577.0409
 20
83.5896
 30
0.0
 10
577.0409
 20
83.5896
 30
0.0
  0
SPLINE
  5
1C1
330
1F
100
AcDbEntity
  8
DEFPOINTS
370
    25
100
AcDbSpline
210
0.0
220
0.0
230
1.0
 70
    24
 71
     3
 72
     8
 73
     4
 74
     0
 42
0.0000000001
 43
0.0000000001
 40
0.0
 40
0.0
 40
0.0
 40
0.0
 40
1.0
 40
1.0
 40
1.0
 40
1.0
 10
553.1649
 20
12.3638
 30
0.0
 10
553.1649
 20
12.3638
 30
0.0
 10
577.0409
 20
12.3638
 30
0.0
 10
577.0409
 20
12.3638
 30
0.0
  0
SPLINE
  5
1C2
330
1F
100
AcDbEntity
  8
DEFPOINTS
370
    25
100
AcDbSpline
210
0.0
220
0.0
230
1.0
 70
    24
 71
     3
 72
     8
 73
     4
 74
     0
 42
0.0000000001
 43
0.0000000001
 40
0.0
 40
0.0
 40
0.0
 40
0.0
 40
1.0
 40
1.0
 40
1.0
 40
1.0
 10
575.1783
 20
79.8431
 30
0.0
 10
575.1783
 20
79.8431
 30
0.0
 10
575.1783
 20
16.0891
 30
0.0
 10
575.1783
 20
16.0891
 30
0.0
  0
SPLINE
  5
1C3
330
1F
100
AcDbEntity
  8
DEFPOINTS
100
AcDbSpline
210
0.0
220
0.0
230
1.0
 70
    11
 71
     3
 72
    16
 73
    12
 74
     0
 42
0.0000000001
 43
0.0000000001
 40
0.0
 40
0.0
 40
0.0
 40
0.0
 40
0.3333333333333333
 40
0.3333333333333333
 40
0.3333333333333333
 40
0.3333333333333333
 40
0.6666666666666666
 40
0.6666666666666666
 40
0.6666666666666666
 40
0.6666666666666666
 40
1.0
 40
1.0
 40
1.0
 40
1.0
 10
574.5433
 20
79.8431
 30
0.0
 10
574.5433
 20
79.8431
 30
0.0
 10
575.7921
 20
79.8431
 30
0.0
 10
575.7921
 20
79.8431
 30
0.0
 10
575.7921
 20
79.8431
 30
0.0
 10
575.7921
 20
79.8431
 30
0.0
 10
575.1783
 20
83.5896
 30
0.0
 10
575.1783
 20
83.5896
 30
0.0
 10
575.1783
 20
83.5896
 30
0.0
 10
575.1783
 20
83.5896
 30
0.0
 10
574.5433
 20
79.8431
 30
0.0
 10
574.5433
 20
79.8431
 30
0.0
  0
SPLINE
  5
1C4
330
1F
100
AcDbEntity
  8
DEFPOINTS
100
AcDbSpline
210
0.0
220
0.0
230
1.0
 70
    11
 71
     3
 72
    16
 73
    12
 74
     0
 42
0.0000000001
 43
0.0000000001
 40
0.0
 40
0.0
 40
0.0
 40
0.0
 40
0.3333333333333333
 40
0.3333333333333333
 40
0.3333333333333333
 40
0.3333333333333333
 40
0.6666666666666666
 40
0.6666666666666666
 40
0.6666666666666666
 40
0.6666666666666666
 40
1.0
 40
1.0
 40
1.0
 40
1.0
 10
574.5433
 20
16.0891
 30
0.0
 10
574.5433
 20
16.0891
 30
0.0
 10
575.7921
 20
16.0891
 30
0.0
 10
575.7921
 20
16.0891
 30
0.0
 10
575.7921
 20
16.0891
 30
0.0
 10
575.7921
 20
16.0891
 30
0.0
 10
575.1783
 20
12.3638
 30
0.0
 10
575.1783
 20
12.3638
 30
0.0
 10
575.1783
 20
12.3638
 30
0.0
 10
575.1783
 20
12.3638
 30
0.0
 10
574.5433
 20
16.0891
 30
0.0
 10
574.5433
 20
16.0891
 30
0.0
  0
SPLINE
  5
1C5
330
1F
100
AcDbEntity
  8
DEFPOINTS
370
    25
100
AcDbSpline
210
0.0
220
0.0
230
1.0
 70
     8
 71
     3
 72
    12
 73
     8
 74
     0
 42
0.0000000001
 43
0.0000000001
 40
0.0
 40
0.0
 40
0.0
 40
0.0
 40
0.5
 40
0.5
 40
0.5
 40
0.5
 40
1.0
 40
1.0
 40
1.0
 40
1.0
 10
571.2836
 20
45.024
 30
0.0
 10
571.2836
 20
45.024
 30
0.0
 10
573.7813
 20
43.246
 30
0.0
 10
573.7813
 20
43.246
 30
0.0
 10
573.7813
 20
43.246
 30
0.0
 10
573.7813
 20
43.246
 30
0.0
 10
573.7813
 20
45.913
 30
0.0
 10
573.7813
 20
45.913
 30
0.0
  0
SPLINE
  5
1C6
330
1F
100
AcDbEntity
  8
DEFPOINTS
370
    25
100
AcDbSpline
210
0.0
220
0.0
230
1.0
 70
    24
 71
     3
 72
     8
 73
     4
 74
     0
 42
0.0000000001
 43
0.0000000001
 40
0.0
 40
0.0
 40
0.0
 40
0.0
 40
1.0
 40
1.0
 40
1.0
 40
1.0
 10
571.2836
 20
45.024
 30
0.0
 10
571.2836
 20
45.024
 30
0.0
 10
575.0301
 20
45.024
 30
0.0
 10
575.0301
 20
45.024
 30
0.0
  0
SPLINE
  5
1C7
330
1F
100
AcDbEntity
  8
DEFPOINTS
370
    25
100
AcDbSpline
210
0.0
220
0.0
230
1.0
 70
     8
 71
     3
 72
    12
 73
     8
 74
     0
 42
0.0000000001
 43
0.0000000001
 40
0.0
 40
0.0
 40
0.0
 40
0.0
 40
0.5
 40
0.5
 40
0.5
 40
0.5
 40
1.0
 40
1.0
 40
1.0
 40
1.0
 10
571.2836
 20
46.802
 30
0.0
 10
571.2836
 20
46.802
 30
0.0
 10
571.2836
 20
49.2996
 30
0.0
 10
571.2836
 20
49.2996
 30
0.0
 10
571.2836
 20
49.2996
 30
0.0
 10
571.2836
 20
49.2996
 30
0.0
 10
575.0301
 20
47.5216
 30
0.0
 10
575.0301
 20
47.5216
 30
0.0
  0
SPLINE
  5
1C8
330
1F
100
AcDbEntity
  8
DEFPOINTS
370
    25
100
AcDbSpline
210
0.0
220
0.0
230
1.0
 70
     8
 71
     3
 72
    92
 73
    88
 74
     0
 42
0.0000000001
 43
0.0000000001
 40
0.0
 40
0.0
 40
0.0
 40
0.0
 40
0.0454545454545455
 40
0.0454545454545455
 40
0.0454545454545455
 40
0.0454545454545455
 40
0.0909090909090909
 40
0.0909090909090909
 40
0.0909090909090909
 40
0.0909090909090909
 40
0.1363636363636364
 40
0.1363636363636364
 40
0.1363636363636364
 40
0.1363636363636364
 40
0.1818181818181818
 40
0.1818181818181818
 40
0.1818181818181818
 40
0.1818181818181818
 40
0.2272727272727273
 40
0.2272727272727273
 40
0.2272727272727273
 40
0.2272727272727273
 40
0.2727272727272728
 40
0.2727272727272728
 40
0.2727272727272728
 40
0.2727272727272728
 40
0.3181818181818182
 40
0.3181818181818182
 40
0.3181818181818182
 40
0.3181818181818182
 40
0.3636363636363637
 40
0.3636363636363637
 40
0.3636363636363637
 40
0.3636363636363637
 40
0.4090909090909092
 40
0.4090909090909092
 40
0.4090909090909092
 40
0.4090909090909092
 40
0.4545454545454546
 40
0.4545454545454546
 40
0.4545454545454546
 40
0.4545454545454546
 40
0.5000000000000001
 40
0.5000000000000001
 40
0.5000000000000001
 40
0.5000000000000001
 40
0.5454545454545455
 40
0.5454545454545455
 40
0.5454545454545455
 40
0.5454545454545455
 40
0.5909090909090909
 40
0.5909090909090909
 40
0.5909090909090909
 40
0.5909090909090909
 40
0.6363636363636364
 40
0.6363636363636364
 40
0.6363636363636364
 40
0.6363636363636364
 40
0.6818181818181818
 40
0.6818181818181818
 40
0.6818181818181818
 40
0.6818181818181818
 40
0.7272727272727272
 40
0.7272727272727272
 40
0.7272727272727272
 40
0.7272727272727272
 40
0.7727272727272726
 40
0.7727272727272726
 40
0.7727272727272726
 40
0.7727272727272726
 40
0.818181818181818
 40
0.818181818181818
 40
0.818181818181818
 40
0.818181818181818
 40
0.8636363636363634
 40
0.8636363636363634
 40
0.8636363636363634
 40
0.8636363636363634
 40
0.9090909090909088
 40
0.9090909090909088
 40
0.9090909090909088
 40
0.9090909090909088
 40
0.9545454545454543
 40
0.9545454545454543
 40
0.9545454545454543
 40
0.9545454545454543
 40
1.0
 40
1.0
 40
1.0
 40
1.0
 10
571.8128
 20
52.517
 30
0.0
 10
571.8128
 20
52.517
 30
0.0
 10
571.4529
 20
52.3265
 30
0.0
 10
571.4529
 20
52.3265
 30
0.0
 10
571.4529
 20
52.3265
 30
0.0
 10
571.4529
 20
52.3265
 30
0.0
 10
571.2836
 20
51.7973
 30
0.0
 10
571.2836
 20
51.7973
 30
0.0
 10
571.2836
 20
51.7973
 30
0.0
 10
571.2836
 20
51.7973
 30
0.0
 10
571.2836
 20
51.4375
 30
0.0
 10
571.2836
 20
51.4375
 30
0.0
 10
571.2836
 20
51.4375
 30
0.0
 10
571.2836
 20
51.4375
 30
0.0
 10
571.4529
 20
50.9083
 30
0.0
 10
571.4529
 20
50.9083
 30
0.0
 10
571.4529
 20
50.9083
 30
0.0
 10
571.4529
 20
50.9083
 30
0.0
 10
571.9821
 20
50.5485
 30
0.0
 10
571.9821
 20
50.5485
 30
0.0
 10
571.9821
 20
50.5485
 30
0.0
 10
571.9821
 20
50.5485
 30
0.0
 10
572.8923
 20
50.3791
 30
0.0
 10
572.8923
 20
50.3791
 30
0.0
 10
572.8923
 20
50.3791
 30
0.0
 10
572.8923
 20
50.3791
 30
0.0
 10
573.7813
 20
50.3791
 30
0.0
 10
573.7813
 20
50.3791
 30
0.0
 10
573.7813
 20
50.3791
 30
0.0
 10
573.7813
 20
50.3791
 30
0.0
 10
574.4798
 20
50.5485
 30
0.0
 10
574.4798
 20
50.5485
 30
0.0
 10
574.4798
 20
50.5485
 30
0.0
 10
574.4798
 20
50.5485
 30
0.0
 10
574.8396
 20
50.9083
 30
0.0
 10
574.8396
 20
50.9083
 30
0.0
 10
574.8396
 20
50.9083
 30
0.0
 10
574.8396
 20
50.9083
 30
0.0
 10
575.0301
 20
51.4375
 30
0.0
 10
575.0301
 20
51.4375
 30
0.0
 10
575.0301
 20
51.4375
 30
0.0
 10
575.0301
 20
51.4375
 30
0.0
 10
575.0301
 20
51.628
 30
0.0
 10
575.0301
 20
51.628
 30
0.0
 10
575.0301
 20
51.628
 30
0.0
 10
575.0301
 20
51.628
 30
0.0
 10
574.8396
 20
52.1571
 30
0.0
 10
574.8396
 20
52.1571
 30
0.0
 10
574.8396
 20
52.1571
 30
0.0
 10
574.8396
 20
52.1571
 30
0.0
 10
574.4798
 20
52.517
 30
0.0
 10
574.4798
 20
52.517
 30
0.0
 10
574.4798
 20
52.517
 30
0.0
 10
574.4798
 20
52.517
 30
0.0
 10
573.9506
 20
52.6863
 30
0.0
 10
573.9506
 20
52.6863
 30
0.0
 10
573.9506
 20
52.6863
 30
0.0
 10
573.9506
 20
52.6863
 30
0.0
 10
573.7813
 20
52.6863
 30
0.0
 10
573.7813
 20
52.6863
 30
0.0
 10
573.7813
 20
52.6863
 30
0.0
 10
573.7813
 20
52.6863
 30
0.0
 10
573.2309
 20
52.517
 30
0.0
 10
573.2309
 20
52.517
 30
0.0
 10
573.2309
 20
52.517
 30
0.0
 10
573.2309
 20
52.517
 30
0.0
 10
572.8923
 20
52.1571
 30
0.0
 10
572.8923
 20
52.1571
 30
0.0
 10
572.8923
 20
52.1571
 30
0.0
 10
572.8923
 20
52.1571
 30
0.0
 10
572.7018
 20
51.628
 30
0.0
 10
572.7018
 20
51.628
 30
0.0
 10
572.7018
 20
51.628
 30
0.0
 10
572.7018
 20
51.628
 30
0.0
 10
572.7018
 20
51.4375
 30
0.0
 10
572.7018
 20
51.4375
 30
0.0
 10
572.7018
 20
51.4375
 30
0.0
 10
572.7018
 20
51.4375
 30
0.0
 10
572.8923
 20
50.9083
 30
0.0
 10
572.8923
 20
50.9083
 30
0.0
 10
572.8923
 20
50.9083
 30
0.0
 10
572.8923
 20
50.9083
 30
0.0
 10
573.2309
 20
50.5485
 30
0.0
 10
573.2309
 20
50.5485
 30
0.0
 10
573.2309
 20
50.5485
 30
0.0
 10
573.2309
 20
50.5485
 30
0.0
 10
573.7813
 20
50.3791
 30
0.0
 10
573.7813
 20
50.3791
 30
0.0
  0
SPLINE
  5
1C9
330
1F
100
AcDbEntity
  8
DEFPOINTS
370
    25
100
AcDbSpline
210
0.0
220
0.0
230
1.0
 70
    24
 71
     3
 72
     8
 73
     4
 74
     0
 42
0.0000000001
 43
0.0000000001
 40
0.0
 40
0.0
 40
0.0
 40
0.0
 40
1.0
 40
1.0
 40
1.0
 40
1.0
 10
555.2816
 20
84.0341
 30
0.0
 10
555.2816
 20
84.0341
 30
0.0
 10
587.0951
 20
84.0341
 30
0.0
 10
587.0951
 20
84.0341
 30
0.0
  0
SPLINE
  5
1CA
330
1F
100
AcDbEntity
  8
DEFPOINTS
370
    25
100
AcDbSpline
210
0.0
220
0.0
230
1.0
 70
    24
 71
     3
 72
     8
 73
     4
 74
     0
 42
0.0000000001
 43
0.0000000001
 40
0.0
 40
0.0
 40
0.0
 40
0.0
 40
1.0
 40
1.0
 40
1.0
 40
1.0
 10
555.2816
 20
12.3638
 30
0.0
 10
555.2816
 20
12.3638
 30
0.0
 10
587.0951
 20
12.3638
 30
0.0
 10
587.0951
 20
12.3638
 30
0.0
  0
SPLINE
  5
1CB
330
1F
100
AcDbEntity
  8
DEFPOINTS
370
    25
100
AcDbSpline
210
0.0
220
0.0
230
1.0
 70
    24
 71
     3
 72
     8
 73
     4
 74
     0
 42
0.0000000001
 43
0.0000000001
 40
0.0
 40
0.0
 40
0.0
 40
0.0
 40
1.0
 40
1.0
 40
1.0
 40
1.0
 10
585.2324
 20
80.2876
 30
0.0
 10
585.2324
 20
80.2876
 30
0.0
 10
585.2324
 20
16.0891
 30
0.0
 10
585.2324
 20
16.0891
 30
0.0
  0
SPLINE
  5
1CC
330
1F
100
AcDbEntity
  8
DEFPOINTS
100
AcDbSpline
210
0.0
220
0.0
230
1.0
 70
    11
 71
     3
 72
    16
 73
    12
 74
     0
 42
0.0000000001
 43
0.0000000001
 40
0.0
 40
0.0
 40
0.0
 40
0.0
 40
0.3333333333333333
 40
0.3333333333333333
 40
0.3333333333333333
 40
0.3333333333333333
 40
0.6666666666666666
 40
0.6666666666666666
 40
0.6666666666666666
 40
0.6666666666666666
 40
1.0
 40
1.0
 40
1.0
 40
1.0
 10
584.5974
 20
80.2876
 30
0.0
 10
584.5974
 20
80.2876
 30
0.0
 10
585.8463
 20
80.2876
 30
0.0
 10
585.8463
 20
80.2876
 30
0.0
 10
585.8463
 20
80.2876
 30
0.0
 10
585.8463
 20
80.2876
 30
0.0
 10
585.2324
 20
84.0341
 30
0.0
 10
585.2324
 20
84.0341
 30
0.0
 10
585.2324
 20
84.0341
 30
0.0
 10
585.2324
 20
84.0341
 30
0.0
 10
584.5974
 20
80.2876
 30
0.0
 10
584.5974
 20
80.2876
 30
0.0
  0
SPLINE
  5
1CD
330
1F
100
AcDbEntity
  8
DEFPOINTS
100
AcDbSpline
210
0.0
220
0.0
230
1.0
 70
    11
 71
     3
 72
    16
 73
    12
 74
     0
 42
0.0000000001
 43
0.0000000001
 40
0.0
 40
0.0
 40
0.0
 40
0.0
 40
0.3333333333333333
 40
0.3333333333333333
 40
0.3333333333333333
 40
0.3333333333333333
 40
0.6666666666666666
 40
0.6666666666666666
 40
0.6666666666666666
 40
0.6666666666666666
 40
1.0
 40
1.0
 40
1.0
 40
1.0
 10
584.5974
 20
16.0891
 30
0.0
 10
584.5974
 20
16.0891
 30
0.0
 10
585.8463
 20
16.0891
 30
0.0
 10
585.8463
 20
16.0891
 30
0.0
 10
585.8463
 20
16.0891
 30
0.0
 10
585.8463
 20
16.0891
 30
0.0
 10
585.2324
 20
12.3638
 30
0.0
 10
585.2324
 20
12.3638
 30
0.0
 10
585.2324
 20
12.3638
 30
0.0
 10
585.2324
 20
12.3638
 30
0.0
 10
584.5974
 20
16.0891
 30
0.0
 10
584.5974
 20
16.0891
 30
0.0
  0
SPLINE
  5
1CE
330
1F
100
AcDbEntity
  8
DEFPOINTS
370
    25
100
AcDbSpline
210
0.0
220
0.0
230
1.0
 70
     8
 71
     3
 72
    12
 73
     8
 74
     0
 42
0.0000000001
 43
0.0000000001
 40
0.0
 40
0.0
 40
0.0
 40
0.0
 40
0.5
 40
0.5
 40
0.5
 40
0.5
 40
1.0
 40
1.0
 40
1.0
 40
1.0
 10
581.3378
 20
45.2568
 30
0.0
 10
581.3378
 20
45.2568
 30
0.0
 10
583.8354
 20
43.4788
 30
0.0
 10
583.8354
 20
43.4788
 30
0.0
 10
583.8354
 20
43.4788
 30
0.0
 10
583.8354
 20
43.4788
 30
0.0
 10
583.8354
 20
46.1458
 30
0.0
 10
583.8354
 20
46.1458
 30
0.0
  0
SPLINE
  5
1CF
330
1F
100
AcDbEntity
  8
DEFPOINTS
370
    25
100
AcDbSpline
210
0.0
220
0.0
230
1.0
 70
    24
 71
     3
 72
     8
 73
     4
 74
     0
 42
0.0000000001
 43
0.0000000001
 40
0.0
 40
0.0
 40
0.0
 40
0.0
 40
1.0
 40
1.0
 40
1.0
 40
1.0
 10
581.3378
 20
45.2568
 30
0.0
 10
581.3378
 20
45.2568
 30
0.0
 10
585.0843
 20
45.2568
 30
0.0
 10
585.0843
 20
45.2568
 30
0.0
  0
SPLINE
  5
1D0
330
1F
100
AcDbEntity
  8
DEFPOINTS
370
    25
100
AcDbSpline
210
0.0
220
0.0
230
1.0
 70
     8
 71
     3
 72
    12
 73
     8
 74
     0
 42
0.0000000001
 43
0.0000000001
 40
0.0
 40
0.0
 40
0.0
 40
0.0
 40
0.5
 40
0.5
 40
0.5
 40
0.5
 40
1.0
 40
1.0
 40
1.0
 40
1.0
 10
581.3378
 20
47.0348
 30
0.0
 10
581.3378
 20
47.0348
 30
0.0
 10
581.3378
 20
49.5325
 30
0.0
 10
581.3378
 20
49.5325
 30
0.0
 10
581.3378
 20
49.5325
 30
0.0
 10
581.3378
 20
49.5325
 30
0.0
 10
585.0843
 20
47.7545
 30
0.0
 10
585.0843
 20
47.7545
 30
0.0
  0
SPLINE
  5
1D1
330
1F
100
AcDbEntity
  8
DEFPOINTS
370
    25
100
AcDbSpline
210
0.0
220
0.0
230
1.0
 70
     8
 71
     3
 72
    92
 73
    88
 74
     0
 42
0.0000000001
 43
0.0000000001
 40
0.0
 40
0.0
 40
0.0
 40
0.0
 40
0.0454545454545455
 40
0.0454545454545455
 40
0.0454545454545455
 40
0.0454545454545455
 40
0.0909090909090909
 40
0.0909090909090909
 40
0.0909090909090909
 40
0.0909090909090909
 40
0.1363636363636364
 40
0.1363636363636364
 40
0.1363636363636364
 40
0.1363636363636364
 40
0.1818181818181818
 40
0.1818181818181818
 40
0.1818181818181818
 40
0.1818181818181818
 40
0.2272727272727273
 40
0.2272727272727273
 40
0.2272727272727273
 40
0.2272727272727273
 40
0.2727272727272728
 40
0.2727272727272728
 40
0.2727272727272728
 40
0.2727272727272728
 40
0.3181818181818182
 40
0.3181818181818182
 40
0.3181818181818182
 40
0.3181818181818182
 40
0.3636363636363637
 40
0.3636363636363637
 40
0.3636363636363637
 40
0.3636363636363637
 40
0.4090909090909092
 40
0.4090909090909092
 40
0.4090909090909092
 40
0.4090909090909092
 40
0.4545454545454546
 40
0.4545454545454546
 40
0.4545454545454546
 40
0.4545454545454546
 40
0.5000000000000001
 40
0.5000000000000001
 40
0.5000000000000001
 40
0.5000000000000001
 40
0.5454545454545455
 40
0.5454545454545455
 40
0.5454545454545455
 40
0.5454545454545455
 40
0.5909090909090909
 40
0.5909090909090909
 40
0.5909090909090909
 40
0.5909090909090909
 40
0.6363636363636364
 40
0.6363636363636364
 40
0.6363636363636364
 40
0.6363636363636364
 40
0.6818181818181818
 40
0.6818181818181818
 40
0.6818181818181818
 40
0.6818181818181818
 40
0.7272727272727272
 40
0.7272727272727272
 40
0.7272727272727272
 40
0.7272727272727272
 40
0.7727272727272726
 40
0.7727272727272726
 40
0.7727272727272726
 40
0.7727272727272726
 40
0.818181818181818
 40
0.818181818181818
 40
0.818181818181818
 40
0.818181818181818
 40
0.8636363636363634
 40
0.8636363636363634
 40
0.8636363636363634
 40
0.8636363636363634
 40
0.9090909090909088
 40
0.9090909090909088
 40
0.9090909090909088
 40
0.9090909090909088
 40
0.9545454545454543
 40
0.9545454545454543
 40
0.9545454545454543
 40
0.9545454545454543
 40
1.0
 40
1.0
 40
1.0
 40
1.0
 10
582.5866
 20
52.9191
 30
0.0
 10
582.5866
 20
52.9191
 30
0.0
 10
583.1158
 20
52.7286
 30
0.0
 10
583.1158
 20
52.7286
 30
0.0
 10
583.1158
 20
52.7286
 30
0.0
 10
583.1158
 20
52.7286
 30
0.0
 10
583.4756
 20
52.39
 30
0.0
 10
583.4756
 20
52.39
 30
0.0
 10
583.4756
 20
52.39
 30
0.0
 10
583.4756
 20
52.39
 30
0.0
 10
583.6449
 20
51.8396
 30
0.0
 10
583.6449
 20
51.8396
 30
0.0
 10
583.6449
 20
51.8396
 30
0.0
 10
583.6449
 20
51.8396
 30
0.0
 10
583.6449
 20
51.6703
 30
0.0
 10
583.6449
 20
51.6703
 30
0.0
 10
583.6449
 20
51.6703
 30
0.0
 10
583.6449
 20
51.6703
 30
0.0
 10
583.4756
 20
51.1411
 30
0.0
 10
583.4756
 20
51.1411
 30
0.0
 10
583.4756
 20
51.1411
 30
0.0
 10
583.4756
 20
51.1411
 30
0.0
 10
583.1158
 20
50.7813
 30
0.0
 10
583.1158
 20
50.7813
 30
0.0
 10
583.1158
 20
50.7813
 30
0.0
 10
583.1158
 20
50.7813
 30
0.0
 10
582.5866
 20
50.5908
 30
0.0
 10
582.5866
 20
50.5908
 30
0.0
 10
582.5866
 20
50.5908
 30
0.0
 10
582.5866
 20
50.5908
 30
0.0
 10
582.3961
 20
50.5908
 30
0.0
 10
582.3961
 20
50.5908
 30
0.0
 10
582.3961
 20
50.5908
 30
0.0
 10
582.3961
 20
50.5908
 30
0.0
 10
581.8669
 20
50.7813
 30
0.0
 10
581.8669
 20
50.7813
 30
0.0
 10
581.8669
 20
50.7813
 30
0.0
 10
581.8669
 20
50.7813
 30
0.0
 10
581.5071
 20
51.1411
 30
0.0
 10
581.5071
 20
51.1411
 30
0.0
 10
581.5071
 20
51.1411
 30
0.0
 10
581.5071
 20
51.1411
 30
0.0
 10
581.3378
 20
51.6703
 30
0.0
 10
581.3378
 20
51.6703
 30
0.0
 10
581.3378
 20
51.6703
 30
0.0
 10
581.3378
 20
51.6703
 30
0.0
 10
581.3378
 20
51.8396
 30
0.0
 10
581.3378
 20
51.8396
 30
0.0
 10
581.3378
 20
51.8396
 30
0.0
 10
581.3378
 20
51.8396
 30
0.0
 10
581.5071
 20
52.39
 30
0.0
 10
581.5071
 20
52.39
 30
0.0
 10
581.5071
 20
52.39
 30
0.0
 10
581.5071
 20
52.39
 30
0.0
 10
581.8669
 20
52.7286
 30
0.0
 10
581.8669
 20
52.7286
 30
0.0
 10
581.8669
 20
52.7286
 30
0.0
 10
581.8669
 20
52.7286
 30
0.0
 10
582.5866
 20
52.9191
 30
0.0
 10
582.5866
 20
52.9191
 30
0.0
 10
582.5866
 20
52.9191
 30
0.0
 10
582.5866
 20
52.9191
 30
0.0
 10
583.4756
 20
52.9191
 30
0.0
 10
583.4756
 20
52.9191
 30
0.0
 10
583.4756
 20
52.9191
 30
0.0
 10
583.4756
 20
52.9191
 30
0.0
 10
584.3646
 20
52.7286
 30
0.0
 10
584.3646
 20
52.7286
 30
0.0
 10
584.3646
 20
52.7286
 30
0.0
 10
584.3646
 20
52.7286
 30
0.0
 10
584.8938
 20
52.39
 30
0.0
 10
584.8938
 20
52.39
 30
0.0
 10
584.8938
 20
52.39
 30
0.0
 10
584.8938
 20
52.39
 30
0.0
 10
585.0843
 20
51.8396
 30
0.0
 10
585.0843
 20
51.8396
 30
0.0
 10
585.0843
 20
51.8396
 30
0.0
 10
585.0843
 20
51.8396
 30
0.0
 10
585.0843
 20
51.4798
 30
0.0
 10
585.0843
 20
51.4798
 30
0.0
 10
585.0843
 20
51.4798
 30
0.0
 10
585.0843
 20
51.4798
 30
0.0
 10
584.8938
 20
50.9506
 30
0.0
 10
584.8938
 20
50.9506
 30
0.0
 10
584.8938
 20
50.9506
 30
0.0
 10
584.8938
 20
50.9506
 30
0.0
 10
584.5339
 20
50.7813
 30
0.0
 10
584.5339
 20
50.7813
 30
0.0
  0
SPLINE
  5
1D2
330
1F
100
AcDbEntity
  8
DEFPOINTS
370
    25
100
AcDbSpline
210
0.0
220
0.0
230
1.0
 70
    24
 71
     3
 72
     8
 73
     4
 74
     0
 42
0.0000000001
 43
0.0000000001
 40
0.0
 40
0.0
 40
0.0
 40
0.0
 40
1.0
 40
1.0
 40
1.0
 40
1.0
 10
435.9439
 20
14.5863
 30
0.0
 10
435.9439
 20
14.5863
 30
0.0
 10
435.9439
 20
5.0613
 30
0.0
 10
435.9439
 20
5.0613
 30
0.0
  0
SPLINE
  5
1D3
330
1F
100
AcDbEntity
  8
DEFPOINTS
370
    25
100
AcDbSpline
210
0.0
220
0.0
230
1.0
 70
    24
 71
     3
 72
     8
 73
     4
 74
     0
 42
0.0000000001
 43
0.0000000001
 40
0.0
 40
0.0
 40
0.0
 40
0.0
 40
1.0
 40
1.0
 40
1.0
 40
1.0
 10
557.1443
 20
14.5863
 30
0.0
 10
557.1443
 20
14.5863
 30
0.0
 10
557.1443
 20
5.0613
 30
0.0
 10
557.1443
 20
5.0613
 30
0.0
  0
SPLINE
  5
1D4
330
1F
100
AcDbEntity
  8
DEFPOINTS
370
    25
100
AcDbSpline
210
0.0
220
0.0
230
1.0
 70
    24
 71
     3
 72
     8
 73
     4
 74
     0
 42
0.0000000001
 43
0.0000000001
 40
0.0
 40
0.0
 40
0.0
 40
0.0
 40
1.0
 40
1.0
 40
1.0
 40
1.0
 10
439.6904
 20
6.9451
 30
0.0
 10
439.6904
 20
6.9451
 30
0.0
 10
553.4189
 20
6.9451
 30
0.0
 10
553.4189
 20
6.9451
 30
0.0
  0
SPLINE
  5
1D5
330
1F
100
AcDbEntity
  8
DEFPOINTS
100
AcDbSpline
210
0.0
220
0.0
230
1.0
 70
    11
 71
     3
 72
    16
 73
    12
 74
     0
 42
0.0000000001
 43
0.0000000001
 40
0.0
 40
0.0
 40
0.0
 40
0.0
 40
0.3333333333333333
 40
0.3333333333333333
 40
0.3333333333333333
 40
0.3333333333333333
 40
0.6666666666666666
 40
0.6666666666666666
 40
0.6666666666666666
 40
0.6666666666666666
 40
1.0
 40
1.0
 40
1.0
 40
1.0
 10
439.6904
 20
7.559
 30
0.0
 10
439.6904
 20
7.559
 30
0.0
 10
439.6904
 20
6.3101
 30
0.0
 10
439.6904
 20
6.3101
 30
0.0
 10
439.6904
 20
6.3101
 30
0.0
 10
439.6904
 20
6.3101
 30
0.0
 10
435.9439
 20
6.9451
 30
0.0
 10
435.9439
 20
6.9451
 30
0.0
 10
435.9439
 20
6.9451
 30
0.0
 10
435.9439
 20
6.9451
 30
0.0
 10
439.6904
 20
7.559
 30
0.0
 10
439.6904
 20
7.559
 30
0.0
  0
SPLINE
  5
1D6
330
1F
100
AcDbEntity
  8
DEFPOINTS
100
AcDbSpline
210
0.0
220
0.0
230
1.0
 70
    11
 71
     3
 72
    16
 73
    12
 74
     0
 42
0.0000000001
 43
0.0000000001
 40
0.0
 40
0.0
 40
0.0
 40
0.0
 40
0.3333333333333333
 40
0.3333333333333333
 40
0.3333333333333333
 40
0.3333333333333333
 40
0.6666666666666666
 40
0.6666666666666666
 40
0.6666666666666666
 40
0.6666666666666666
 40
1.0
 40
1.0
 40
1.0
 40
1.0
 10
553.4189
 20
7.559
 30
0.0
 10
553.4189
 20
7.559
 30
0.0
 10
553.4189
 20
6.3101
 30
0.0
 10
553.4189
 20
6.3101
 30
0.0
 10
553.4189
 20
6.3101
 30
0.0
 10
553.4189
 20
6.3101
 30
0.0
 10
557.1443
 20
6.9451
 30
0.0
 10
557.1443
 20
6.9451
 30
0.0
 10
557.1443
 20
6.9451
 30
0.0
 10
557.1443
 20
6.9451
 30
0.0
 10
553.4189
 20
7.559
 30
0.0
 10
553.4189
 20
7.559
 30
0.0
  0
SPLINE
  5
1D7
330
1F
100
AcDbEntity
  8
DEFPOINTS
370
    25
100
AcDbSpline
210
0.0
220
0.0
230
1.0
 70
    11
 71
     3
 72
    96
 73
    92
 74
     0
 42
0.0000000001
 43
0.0000000001
 40
0.0
 40
0.0
 40
0.0
 40
0.0
 40
0.0434782608695652
 40
0.0434782608695652
 40
0.0434782608695652
 40
0.0434782608695652
 40
0.0869565217391304
 40
0.0869565217391304
 40
0.0869565217391304
 40
0.0869565217391304
 40
0.1304347826086956
 40
0.1304347826086956
 40
0.1304347826086956
 40
0.1304347826086956
 40
0.1739130434782609
 40
0.1739130434782609
 40
0.1739130434782609
 40
0.1739130434782609
 40
0.2173913043478261
 40
0.2173913043478261
 40
0.2173913043478261
 40
0.2173913043478261
 40
0.2608695652173913
 40
0.2608695652173913
 40
0.2608695652173913
 40
0.2608695652173913
 40
0.3043478260869565
 40
0.3043478260869565
 40
0.3043478260869565
 40
0.3043478260869565
 40
0.3478260869565217
 40
0.3478260869565217
 40
0.3478260869565217
 40
0.3478260869565217
 40
0.3913043478260869
 40
0.3913043478260869
 40
0.3913043478260869
 40
0.3913043478260869
 40
0.4347826086956521
 40
0.4347826086956521
 40
0.4347826086956521
 40
0.4347826086956521
 40
0.4782608695652173
 40
0.4782608695652173
 40
0.4782608695652173
 40
0.4782608695652173
 40
0.5217391304347825
 40
0.5217391304347825
 40
0.5217391304347825
 40
0.5217391304347825
 40
0.5652173913043477
 40
0.5652173913043477
 40
0.5652173913043477
 40
0.5652173913043477
 40
0.6086956521739129
 40
0.6086956521739129
 40
0.6086956521739129
 40
0.6086956521739129
 40
0.652173913043478
 40
0.652173913043478
 40
0.652173913043478
 40
0.652173913043478
 40
0.6956521739130432
 40
0.6956521739130432
 40
0.6956521739130432
 40
0.6956521739130432
 40
0.7391304347826084
 40
0.7391304347826084
 40
0.7391304347826084
 40
0.7391304347826084
 40
0.7826086956521736
 40
0.7826086956521736
 40
0.7826086956521736
 40
0.7826086956521736
 40
0.8260869565217388
 40
0.8260869565217388
 40
0.8260869565217388
 40
0.8260869565217388
 40
0.869565217391304
 40
0.869565217391304
 40
0.869565217391304
 40
0.869565217391304
 40
0.9130434782608692
 40
0.9130434782608692
 40
0.9130434782608692
 40
0.9130434782608692
 40
0.9565217391304344
 40
0.9565217391304344
 40
0.9565217391304344
 40
0.9565217391304344
 40
1.0
 40
1.0
 40
1.0
 40
1.0
 10
492.9881
 20
10.8398
 30
0.0
 10
492.9881
 20
10.8398
 30
0.0
 10
492.4589
 20
10.6493
 30
0.0
 10
492.4589
 20
10.6493
 30
0.0
 10
492.4589
 20
10.6493
 30
0.0
 10
491.6659
 20
9.2936
 30
0.0
 10
493.2654
 20
9.4139
 30
0.0
 10
494.0464
 20
9.0406
 30
0.0
 10
494.0464
 20
9.0406
 30
0.0
 10
494.0464
 20
9.0406
 30
0.0
 10
494.4063
 20
8.702
 30
0.0
 10
494.4063
 20
8.702
 30
0.0
 10
494.4063
 20
8.702
 30
0.0
 10
494.4063
 20
8.702
 30
0.0
 10
494.5968
 20
8.3421
 30
0.0
 10
494.5968
 20
8.3421
 30
0.0
 10
494.5968
 20
8.3421
 30
0.0
 10
494.5968
 20
8.3421
 30
0.0
 10
494.5968
 20
7.813
 30
0.0
 10
494.5968
 20
7.813
 30
0.0
 10
494.5968
 20
7.813
 30
0.0
 10
494.5968
 20
7.813
 30
0.0
 10
494.4063
 20
7.4531
 30
0.0
 10
494.4063
 20
7.4531
 30
0.0
 10
494.4063
 20
7.4531
 30
0.0
 10
494.4063
 20
7.4531
 30
0.0
 10
494.2369
 20
7.2626
 30
0.0
 10
494.2369
 20
7.2626
 30
0.0
 10
494.2369
 20
7.2626
 30
0.0
 10
494.2369
 20
7.2626
 30
0.0
 10
493.7078
 20
7.0933
 30
0.0
 10
493.7078
 20
7.0933
 30
0.0
 10
493.7078
 20
7.0933
 30
0.0
 10
493.7078
 20
7.0933
 30
0.0
 10
492.9881
 20
7.0933
 30
0.0
 10
492.9881
 20
7.0933
 30
0.0
 10
492.9881
 20
7.0933
 30
0.0
 10
492.9881
 20
7.0933
 30
0.0
 10
492.4589
 20
7.2626
 30
0.0
 10
492.4589
 20
7.2626
 30
0.0
 10
492.4589
 20
7.2626
 30
0.0
 10
492.4589
 20
7.2626
 30
0.0
 10
492.2684
 20
7.4531
 30
0.0
 10
492.2684
 20
7.4531
 30
0.0
 10
492.2684
 20
7.4531
 30
0.0
 10
492.2684
 20
7.4531
 30
0.0
 10
492.0991
 20
7.813
 30
0.0
 10
492.0991
 20
7.813
 30
0.0
 10
492.0991
 20
7.813
 30
0.0
 10
492.0991
 20
7.813
 30
0.0
 10
492.0991
 20
8.3421
 30
0.0
 10
492.0991
 20
8.3421
 30
0.0
 10
492.0991
 20
8.3421
 30
0.0
 10
492.0991
 20
8.3421
 30
0.0
 10
492.2684
 20
8.702
 30
0.0
 10
492.2684
 20
8.702
 30
0.0
 10
492.2684
 20
8.702
 30
0.0
 10
492.2684
 20
8.702
 30
0.0
 10
492.6283
 20
9.0406
 30
0.0
 10
492.6283
 20
9.0406
 30
0.0
 10
492.6283
 20
9.0406
 30
0.0
 10
492.6283
 20
9.0406
 30
0.0
 10
493.1574
 20
9.2311
 30
0.0
 10
493.1574
 20
9.2311
 30
0.0
 10
493.1574
 20
9.2311
 30
0.0
 10
493.1574
 20
9.2311
 30
0.0
 10
493.8771
 20
9.4005
 30
0.0
 10
493.8771
 20
9.4005
 30
0.0
 10
493.8771
 20
9.4005
 30
0.0
 10
493.8771
 20
9.4005
 30
0.0
 10
494.2369
 20
9.591
 30
0.0
 10
494.2369
 20
9.591
 30
0.0
 10
494.2369
 20
9.591
 30
0.0
 10
494.2369
 20
9.591
 30
0.0
 10
494.4063
 20
9.9508
 30
0.0
 10
494.4063
 20
9.9508
 30
0.0
 10
494.4063
 20
9.9508
 30
0.0
 10
494.4063
 20
9.9508
 30
0.0
 10
494.4063
 20
10.2895
 30
0.0
 10
494.4063
 20
10.2895
 30
0.0
 10
494.4063
 20
10.2895
 30
0.0
 10
494.4063
 20
10.2895
 30
0.0
 10
494.2369
 20
10.6493
 30
0.0
 10
494.2369
 20
10.6493
 30
0.0
 10
494.2369
 20
10.6493
 30
0.0
 10
494.2369
 20
10.6493
 30
0.0
 10
493.7078
 20
10.8398
 30
0.0
 10
493.7078
 20
10.8398
 30
0.0
 10
493.7078
 20
10.8398
 30
0.0
 10
493.7078
 20
10.8398
 30
0.0
 10
492.9881
 20
10.8398
 30
0.0
 10
492.9881
 20
10.8398
 30
0.0
  0
SPLINE
  5
1D8
330
1F
100
AcDbEntity
  8
DEFPOINTS
370
    25
100
AcDbSpline
210
0.0
220
0.0
230
1.0
 70
     8
 71
     3
 72
    16
 73
    12
 74
     0
 42
0.0000000001
 43
0.0000000001
 40
0.0
 40
0.0
 40
0.0
 40
0.0
 40
0.3333333333333333
 40
0.3333333333333333
 40
0.3333333333333333
 40
0.3333333333333333
 40
0.6666666666666666
 40
0.6666666666666666
 40
0.6666666666666666
 40
0.6666666666666666
 40
1.0
 40
1.0
 40
1.0
 40
1.0
 10
495.6551
 20
10.1201
 30
0.0
 10
495.6551
 20
10.1201
 30
0.0
 10
496.0149
 20
10.2895
 30
0.0
 10
496.0149
 20
10.2895
 30
0.0
 10
496.0149
 20
10.2895
 30
0.0
 10
496.0149
 20
10.2895
 30
0.0
 10
496.5441
 20
10.8398
 30
0.0
 10
496.5441
 20
10.8398
 30
0.0
 10
496.5441
 20
10.8398
 30
0.0
 10
496.5441
 20
10.8398
 30
0.0
 10
496.5441
 20
7.0933
 30
0.0
 10
496.5441
 20
7.0933
 30
0.0
  0
SPLINE
  5
1D9
330
1F
100
AcDbEntity
  8
DEFPOINTS
370
    25
100
AcDbSpline
210
0.0
220
0.0
230
1.0
 70
    11
 71
     3
 72
    68
 73
    64
 74
     0
 42
0.0000000001
 43
0.0000000001
 40
0.0
 40
0.0
 40
0.0
 40
0.0
 40
0.0625
 40
0.0625
 40
0.0625
 40
0.0625
 40
0.125
 40
0.125
 40
0.125
 40
0.125
 40
0.1875
 40
0.1875
 40
0.1875
 40
0.1875
 40
0.25
 40
0.25
 40
0.25
 40
0.25
 40
0.3125
 40
0.3125
 40
0.3125
 40
0.3125
 40
0.375
 40
0.375
 40
0.375
 40
0.375
 40
0.4375
 40
0.4375
 40
0.4375
 40
0.4375
 40
0.5
 40
0.5
 40
0.5
 40
0.5
 40
0.5625
 40
0.5625
 40
0.5625
 40
0.5625
 40
0.625
 40
0.625
 40
0.625
 40
0.625
 40
0.6875
 40
0.6875
 40
0.6875
 40
0.6875
 40
0.75
 40
0.75
 40
0.75
 40
0.75
 40
0.8125
 40
0.8125
 40
0.8125
 40
0.8125
 40
0.875
 40
0.875
 40
0.875
 40
0.875
 40
0.9375
 40
0.9375
 40
0.9375
 40
0.9375
 40
1.0
 40
1.0
 40
1.0
 40
1.0
 10
499.5709
 20
10.8398
 30
0.0
 10
499.5709
 20
10.8398
 30
0.0
 10
499.0418
 20
10.6493
 30
0.0
 10
499.0418
 20
10.6493
 30
0.0
 10
499.0418
 20
10.6493
 30
0.0
 10
499.0418
 20
10.6493
 30
0.0
 10
498.6819
 20
10.1201
 30
0.0
 10
498.6819
 20
10.1201
 30
0.0
 10
498.6819
 20
10.1201
 30
0.0
 10
498.6819
 20
10.1201
 30
0.0
 10
498.5126
 20
9.2311
 30
0.0
 10
498.5126
 20
9.2311
 30
0.0
 10
498.5126
 20
9.2311
 30
0.0
 10
498.5126
 20
9.2311
 30
0.0
 10
498.5126
 20
8.702
 30
0.0
 10
498.5126
 20
8.702
 30
0.0
 10
498.5126
 20
8.702
 30
0.0
 10
498.5126
 20
8.702
 30
0.0
 10
498.6819
 20
7.813
 30
0.0
 10
498.6819
 20
7.813
 30
0.0
 10
498.6819
 20
7.813
 30
0.0
 10
498.6819
 20
7.813
 30
0.0
 10
499.0418
 20
7.2626
 30
0.0
 10
499.0418
 20
7.2626
 30
0.0
 10
499.0418
 20
7.2626
 30
0.0
 10
499.0418
 20
7.2626
 30
0.0
 10
499.5709
 20
7.0933
 30
0.0
 10
499.5709
 20
7.0933
 30
0.0
 10
499.5709
 20
7.0933
 30
0.0
 10
499.5709
 20
7.0933
 30
0.0
 10
499.9308
 20
7.0933
 30
0.0
 10
499.9308
 20
7.0933
 30
0.0
 10
499.9308
 20
7.0933
 30
0.0
 10
499.9308
 20
7.0933
 30
0.0
 10
500.4599
 20
7.2626
 30
0.0
 10
500.4599
 20
7.2626
 30
0.0
 10
500.4599
 20
7.2626
 30
0.0
 10
500.4599
 20
7.2626
 30
0.0
 10
500.8198
 20
7.813
 30
0.0
 10
500.8198
 20
7.813
 30
0.0
 10
500.8198
 20
7.813
 30
0.0
 10
500.8198
 20
7.813
 30
0.0
 10
501.0103
 20
8.702
 30
0.0
 10
501.0103
 20
8.702
 30
0.0
 10
501.0103
 20
8.702
 30
0.0
 10
501.0103
 20
8.702
 30
0.0
 10
501.0103
 20
9.2311
 30
0.0
 10
501.0103
 20
9.2311
 30
0.0
 10
501.0103
 20
9.2311
 30
0.0
 10
501.0103
 20
9.2311
 30
0.0
 10
500.8198
 20
10.1201
 30
0.0
 10
500.8198
 20
10.1201
 30
0.0
 10
500.8198
 20
10.1201
 30
0.0
 10
500.8198
 20
10.1201
 30
0.0
 10
500.4599
 20
10.6493
 30
0.0
 10
500.4599
 20
10.6493
 30
0.0
 10
500.4599
 20
10.6493
 30
0.0
 10
500.4599
 20
10.6493
 30
0.0
 10
499.9308
 20
10.8398
 30
0.0
 10
499.9308
 20
10.8398
 30
0.0
 10
499.9308
 20
10.8398
 30
0.0
 10
499.9308
 20
10.8398
 30
0.0
 10
499.5709
 20
10.8398
 30
0.0
 10
499.5709
 20
10.8398
 30
0.0
  0
SPLINE
  5
1DA
330
1F
100
AcDbEntity
  8
DEFPOINTS
370
    25
100
AcDbSpline
210
0.0
220
0.0
230
1.0
 70
    24
 71
     3
 72
     8
 73
     4
 74
     0
 42
0.0000000001
 43
0.0000000001
 40
0.0
 40
0.0
 40
0.0
 40
0.0
 40
1.0
 40
1.0
 40
1.0
 40
1.0
 10
435.0549
 20
12.1098
 30
0.0
 10
435.0549
 20
12.1098
 30
0.0
 10
435.0549
 20
-8.443
 30
0.0
 10
435.0549
 20
-8.443
 30
0.0
  0
SPLINE
  5
1DB
330
1F
100
AcDbEntity
  8
DEFPOINTS
370
    25
100
AcDbSpline
210
0.0
220
0.0
230
1.0
 70
    24
 71
     3
 72
     8
 73
     4
 74
     0
 42
0.0000000001
 43
0.0000000001
 40
0.0
 40
0.0
 40
0.0
 40
0.0
 40
1.0
 40
1.0
 40
1.0
 40
1.0
 10
558.0544
 20
12.1098
 30
0.0
 10
558.0544
 20
12.1098
 30
0.0
 10
558.0544
 20
-8.443
 30
0.0
 10
558.0544
 20
-8.443
 30
0.0
  0
SPLINE
  5
1DC
330
1F
100
AcDbEntity
  8
DEFPOINTS
370
    25
100
AcDbSpline
210
0.0
220
0.0
230
1.0
 70
    24
 71
     3
 72
     8
 73
     4
 74
     0
 42
0.0000000001
 43
0.0000000001
 40
0.0
 40
0.0
 40
0.0
 40
0.0
 40
1.0
 40
1.0
 40
1.0
 40
1.0
 10
438.7803
 20
-6.5592
 30
0.0
 10
438.7803
 20
-6.5592
 30
0.0
 10
554.3079
 20
-6.5592
 30
0.0
 10
554.3079
 20
-6.5592
 30
0.0
  0
SPLINE
  5
1DD
330
1F
100
AcDbEntity
  8
DEFPOINTS
100
AcDbSpline
210
0.0
220
0.0
230
1.0
 70
    11
 71
     3
 72
    16
 73
    12
 74
     0
 42
0.0000000001
 43
0.0000000001
 40
0.0
 40
0.0
 40
0.0
 40
0.0
 40
0.3333333333333333
 40
0.3333333333333333
 40
0.3333333333333333
 40
0.3333333333333333
 40
0.6666666666666666
 40
0.6666666666666666
 40
0.6666666666666666
 40
0.6666666666666666
 40
1.0
 40
1.0
 40
1.0
 40
1.0
 10
438.7803
 20
-5.9454
 30
0.0
 10
438.7803
 20
-5.9454
 30
0.0
 10
438.7803
 20
-7.1942
 30
0.0
 10
438.7803
 20
-7.1942
 30
0.0
 10
438.7803
 20
-7.1942
 30
0.0
 10
438.7803
 20
-7.1942
 30
0.0
 10
435.0549
 20
-6.5592
 30
0.0
 10
435.0549
 20
-6.5592
 30
0.0
 10
435.0549
 20
-6.5592
 30
0.0
 10
435.0549
 20
-6.5592
 30
0.0
 10
438.7803
 20
-5.9454
 30
0.0
 10
438.7803
 20
-5.9454
 30
0.0
  0
SPLINE
  5
1DE
330
1F
100
AcDbEntity
  8
DEFPOINTS
100
AcDbSpline
210
0.0
220
0.0
230
1.0
 70
    11
 71
     3
 72
    16
 73
    12
 74
     0
 42
0.0000000001
 43
0.0000000001
 40
0.0
 40
0.0
 40
0.0
 40
0.0
 40
0.3333333333333333
 40
0.3333333333333333
 40
0.3333333333333333
 40
0.3333333333333333
 40
0.6666666666666666
 40
0.6666666666666666
 40
0.6666666666666666
 40
0.6666666666666666
 40
1.0
 40
1.0
 40
1.0
 40
1.0
 10
554.3079
 20
-5.9454
 30
0.0
 10
554.3079
 20
-5.9454
 30
0.0
 10
554.3079
 20
-7.1942
 30
0.0
 10
554.3079
 20
-7.1942
 30
0.0
 10
554.3079
 20
-7.1942
 30
0.0
 10
554.3079
 20
-7.1942
 30
0.0
 10
558.0544
 20
-6.5592
 30
0.0
 10
558.0544
 20
-6.5592
 30
0.0
 10
558.0544
 20
-6.5592
 30
0.0
 10
558.0544
 20
-6.5592
 30
0.0
 10
554.3079
 20
-5.9454
 30
0.0
 10
554.3079
 20
-5.9454
 30
0.0
  0
SPLINE
  5
1DF
330
1F
100
AcDbEntity
  8
DEFPOINTS
370
    25
100
AcDbSpline
210
0.0
220
0.0
230
1.0
 70
    11
 71
     3
 72
    96
 73
    92
 74
     0
 42
0.0000000001
 43
0.0000000001
 40
0.0
 40
0.0
 40
0.0
 40
0.0
 40
0.0434782608695652
 40
0.0434782608695652
 40
0.0434782608695652
 40
0.0434782608695652
 40
0.0869565217391304
 40
0.0869565217391304
 40
0.0869565217391304
 40
0.0869565217391304
 40
0.1304347826086956
 40
0.1304347826086956
 40
0.1304347826086956
 40
0.1304347826086956
 40
0.1739130434782609
 40
0.1739130434782609
 40
0.1739130434782609
 40
0.1739130434782609
 40
0.2173913043478261
 40
0.2173913043478261
 40
0.2173913043478261
 40
0.2173913043478261
 40
0.2608695652173913
 40
0.2608695652173913
 40
0.2608695652173913
 40
0.2608695652173913
 40
0.3043478260869565
 40
0.3043478260869565
 40
0.3043478260869565
 40
0.3043478260869565
 40
0.3478260869565217
 40
0.3478260869565217
 40
0.3478260869565217
 40
0.3478260869565217
 40
0.3913043478260869
 40
0.3913043478260869
 40
0.3913043478260869
 40
0.3913043478260869
 40
0.4347826086956521
 40
0.4347826086956521
 40
0.4347826086956521
 40
0.4347826086956521
 40
0.4782608695652173
 40
0.4782608695652173
 40
0.4782608695652173
 40
0.4782608695652173
 40
0.5217391304347825
 40
0.5217391304347825
 40
0.5217391304347825
 40
0.5217391304347825
 40
0.5652173913043477
 40
0.5652173913043477
 40
0.5652173913043477
 40
0.5652173913043477
 40
0.6086956521739129
 40
0.6086956521739129
 40
0.6086956521739129
 40
0.6086956521739129
 40
0.652173913043478
 40
0.652173913043478
 40
0.652173913043478
 40
0.652173913043478
 40
0.6956521739130432
 40
0.6956521739130432
 40
0.6956521739130432
 40
0.6956521739130432
 40
0.7391304347826084
 40
0.7391304347826084
 40
0.7391304347826084
 40
0.7391304347826084
 40
0.7826086956521736
 40
0.7826086956521736
 40
0.7826086956521736
 40
0.7826086956521736
 40
0.8260869565217388
 40
0.8260869565217388
 40
0.8260869565217388
 40
0.8260869565217388
 40
0.869565217391304
 40
0.869565217391304
 40
0.869565217391304
 40
0.869565217391304
 40
0.9130434782608692
 40
0.9130434782608692
 40
0.9130434782608692
 40
0.9130434782608692
 40
0.9565217391304344
 40
0.9565217391304344
 40
0.9565217391304344
 40
0.9565217391304344
 40
1.0
 40
1.0
 40
1.0
 40
1.0
 10
492.6283
 20
-2.6857
 30
0.0
 10
492.6283
 20
-2.6857
 30
0.0
 10
492.0991
 20
-2.855
 30
0.0
 10
492.0991
 20
-2.855
 30
0.0
 10
492.0991
 20
-2.855
 30
0.0
 10
491.2976
 20
-4.2489
 30
0.0
 10
492.9084
 20
-4.0792
 30
0.0
 10
493.7078
 20
-4.4637
 30
0.0
 10
493.7078
 20
-4.4637
 30
0.0
 10
493.7078
 20
-4.4637
 30
0.0
 10
494.0464
 20
-4.8235
 30
0.0
 10
494.0464
 20
-4.8235
 30
0.0
 10
494.0464
 20
-4.8235
 30
0.0
 10
494.0464
 20
-4.8235
 30
0.0
 10
494.2369
 20
-5.1622
 30
0.0
 10
494.2369
 20
-5.1622
 30
0.0
 10
494.2369
 20
-5.1622
 30
0.0
 10
494.2369
 20
-5.1622
 30
0.0
 10
494.2369
 20
-5.7125
 30
0.0
 10
494.2369
 20
-5.7125
 30
0.0
 10
494.2369
 20
-5.7125
 30
0.0
 10
494.2369
 20
-5.7125
 30
0.0
 10
494.0464
 20
-6.0724
 30
0.0
 10
494.0464
 20
-6.0724
 30
0.0
 10
494.0464
 20
-6.0724
 30
0.0
 10
494.0464
 20
-6.0724
 30
0.0
 10
493.8771
 20
-6.2417
 30
0.0
 10
493.8771
 20
-6.2417
 30
0.0
 10
493.8771
 20
-6.2417
 30
0.0
 10
493.8771
 20
-6.2417
 30
0.0
 10
493.3479
 20
-6.411
 30
0.0
 10
493.3479
 20
-6.411
 30
0.0
 10
493.3479
 20
-6.411
 30
0.0
 10
493.3479
 20
-6.411
 30
0.0
 10
492.6283
 20
-6.411
 30
0.0
 10
492.6283
 20
-6.411
 30
0.0
 10
492.6283
 20
-6.411
 30
0.0
 10
492.6283
 20
-6.411
 30
0.0
 10
492.0991
 20
-6.2417
 30
0.0
 10
492.0991
 20
-6.2417
 30
0.0
 10
492.0991
 20
-6.2417
 30
0.0
 10
492.0991
 20
-6.2417
 30
0.0
 10
491.9086
 20
-6.0724
 30
0.0
 10
491.9086
 20
-6.0724
 30
0.0
 10
491.9086
 20
-6.0724
 30
0.0
 10
491.9086
 20
-6.0724
 30
0.0
 10
491.7393
 20
-5.7125
 30
0.0
 10
491.7393
 20
-5.7125
 30
0.0
 10
491.7393
 20
-5.7125
 30
0.0
 10
491.7393
 20
-5.7125
 30
0.0
 10
491.7393
 20
-5.1622
 30
0.0
 10
491.7393
 20
-5.1622
 30
0.0
 10
491.7393
 20
-5.1622
 30
0.0
 10
491.7393
 20
-5.1622
 30
0.0
 10
491.9086
 20
-4.8235
 30
0.0
 10
491.9086
 20
-4.8235
 30
0.0
 10
491.9086
 20
-4.8235
 30
0.0
 10
491.9086
 20
-4.8235
 30
0.0
 10
492.2684
 20
-4.4637
 30
0.0
 10
492.2684
 20
-4.4637
 30
0.0
 10
492.2684
 20
-4.4637
 30
0.0
 10
492.2684
 20
-4.4637
 30
0.0
 10
492.8188
 20
-4.2732
 30
0.0
 10
492.8188
 20
-4.2732
 30
0.0
 10
492.8188
 20
-4.2732
 30
0.0
 10
492.8188
 20
-4.2732
 30
0.0
 10
493.5173
 20
-4.1039
 30
0.0
 10
493.5173
 20
-4.1039
 30
0.0
 10
493.5173
 20
-4.1039
 30
0.0
 10
493.5173
 20
-4.1039
 30
0.0
 10
493.8771
 20
-3.9345
 30
0.0
 10
493.8771
 20
-3.9345
 30
0.0
 10
493.8771
 20
-3.9345
 30
0.0
 10
493.8771
 20
-3.9345
 30
0.0
 10
494.0464
 20
-3.5747
 30
0.0
 10
494.0464
 20
-3.5747
 30
0.0
 10
494.0464
 20
-3.5747
 30
0.0
 10
494.0464
 20
-3.5747
 30
0.0
 10
494.0464
 20
-3.2149
 30
0.0
 10
494.0464
 20
-3.2149
 30
0.0
 10
494.0464
 20
-3.2149
 30
0.0
 10
494.0464
 20
-3.2149
 30
0.0
 10
493.8771
 20
-2.855
 30
0.0
 10
493.8771
 20
-2.855
 30
0.0
 10
493.8771
 20
-2.855
 30
0.0
 10
493.8771
 20
-2.855
 30
0.0
 10
493.3479
 20
-2.6857
 30
0.0
 10
493.3479
 20
-2.6857
 30
0.0
 10
493.3479
 20
-2.6857
 30
0.0
 10
493.3479
 20
-2.6857
 30
0.0
 10
492.6283
 20
-2.6857
 30
0.0
 10
492.6283
 20
-2.6857
 30
0.0
  0
SPLINE
  5
1E0
330
1F
100
AcDbEntity
  8
DEFPOINTS
370
    25
100
AcDbSpline
210
0.0
220
0.0
230
1.0
 70
     8
 71
     3
 72
    56
 73
    52
 74
     0
 42
0.0000000001
 43
0.0000000001
 40
0.0
 40
0.0
 40
0.0
 40
0.0
 40
0.0769230769230769
 40
0.0769230769230769
 40
0.0769230769230769
 40
0.0769230769230769
 40
0.1538461538461539
 40
0.1538461538461539
 40
0.1538461538461539
 40
0.1538461538461539
 40
0.2307692307692308
 40
0.2307692307692308
 40
0.2307692307692308
 40
0.2307692307692308
 40
0.3076923076923077
 40
0.3076923076923077
 40
0.3076923076923077
 40
0.3076923076923077
 40
0.3846153846153846
 40
0.3846153846153846
 40
0.3846153846153846
 40
0.3846153846153846
 40
0.4615384615384616
 40
0.4615384615384616
 40
0.4615384615384616
 40
0.4615384615384616
 40
0.5384615384615385
 40
0.5384615384615385
 40
0.5384615384615385
 40
0.5384615384615385
 40
0.6153846153846154
 40
0.6153846153846154
 40
0.6153846153846154
 40
0.6153846153846154
 40
0.6923076923076923
 40
0.6923076923076923
 40
0.6923076923076923
 40
0.6923076923076923
 40
0.7692307692307692
 40
0.7692307692307692
 40
0.7692307692307692
 40
0.7692307692307692
 40
0.846153846153846
 40
0.846153846153846
 40
0.846153846153846
 40
0.846153846153846
 40
0.9230769230769229
 40
0.9230769230769229
 40
0.9230769230769229
 40
0.9230769230769229
 40
1.0
 40
1.0
 40
1.0
 40
1.0
 10
495.4858
 20
-3.5747
 30
0.0
 10
495.4858
 20
-3.5747
 30
0.0
 10
495.4858
 20
-3.3842
 30
0.0
 10
495.4858
 20
-3.3842
 30
0.0
 10
495.4858
 20
-3.3842
 30
0.0
 10
495.4858
 20
-3.3842
 30
0.0
 10
495.6551
 20
-3.0244
 30
0.0
 10
495.6551
 20
-3.0244
 30
0.0
 10
495.6551
 20
-3.0244
 30
0.0
 10
495.6551
 20
-3.0244
 30
0.0
 10
495.8456
 20
-2.855
 30
0.0
 10
495.8456
 20
-2.855
 30
0.0
 10
495.8456
 20
-2.855
 30
0.0
 10
495.8456
 20
-2.855
 30
0.0
 10
496.1843
 20
-2.6857
 30
0.0
 10
496.1843
 20
-2.6857
 30
0.0
 10
496.1843
 20
-2.6857
 30
0.0
 10
496.1843
 20
-2.6857
 30
0.0
 10
496.9039
 20
-2.6857
 30
0.0
 10
496.9039
 20
-2.6857
 30
0.0
 10
496.9039
 20
-2.6857
 30
0.0
 10
496.9039
 20
-2.6857
 30
0.0
 10
497.2638
 20
-2.855
 30
0.0
 10
497.2638
 20
-2.855
 30
0.0
 10
497.2638
 20
-2.855
 30
0.0
 10
497.2638
 20
-2.855
 30
0.0
 10
497.4331
 20
-3.0244
 30
0.0
 10
497.4331
 20
-3.0244
 30
0.0
 10
497.4331
 20
-3.0244
 30
0.0
 10
497.4331
 20
-3.0244
 30
0.0
 10
497.6236
 20
-3.3842
 30
0.0
 10
497.6236
 20
-3.3842
 30
0.0
 10
497.6236
 20
-3.3842
 30
0.0
 10
497.6236
 20
-3.3842
 30
0.0
 10
497.6236
 20
-3.744
 30
0.0
 10
497.6236
 20
-3.744
 30
0.0
 10
497.6236
 20
-3.744
 30
0.0
 10
497.6236
 20
-3.744
 30
0.0
 10
497.4331
 20
-4.1039
 30
0.0
 10
497.4331
 20
-4.1039
 30
0.0
 10
497.4331
 20
-4.1039
 30
0.0
 10
497.4331
 20
-4.1039
 30
0.0
 10
497.0944
 20
-4.633
 30
0.0
 10
497.0944
 20
-4.633
 30
0.0
 10
497.0944
 20
-4.633
 30
0.0
 10
497.0944
 20
-4.633
 30
0.0
 10
495.2953
 20
-6.411
 30
0.0
 10
495.2953
 20
-6.411
 30
0.0
 10
495.2953
 20
-6.411
 30
0.0
 10
495.2953
 20
-6.411
 30
0.0
 10
497.7929
 20
-6.411
 30
0.0
 10
497.7929
 20
-6.411
 30
0.0
  0
SPLINE
  5
1E1
330
1F
100
AcDbEntity
  8
DEFPOINTS
370
    25
100
AcDbSpline
210
0.0
220
0.0
230
1.0
 70
     8
 71
     3
 72
    56
 73
    52
 74
     0
 42
0.0000000001
 43
0.0000000001
 40
0.0
 40
0.0
 40
0.0
 40
0.0
 40
0.0769230769230769
 40
0.0769230769230769
 40
0.0769230769230769
 40
0.0769230769230769
 40
0.1538461538461539
 40
0.1538461538461539
 40
0.1538461538461539
 40
0.1538461538461539
 40
0.2307692307692308
 40
0.2307692307692308
 40
0.2307692307692308
 40
0.2307692307692308
 40
0.3076923076923077
 40
0.3076923076923077
 40
0.3076923076923077
 40
0.3076923076923077
 40
0.3846153846153846
 40
0.3846153846153846
 40
0.3846153846153846
 40
0.3846153846153846
 40
0.4615384615384616
 40
0.4615384615384616
 40
0.4615384615384616
 40
0.4615384615384616
 40
0.5384615384615385
 40
0.5384615384615385
 40
0.5384615384615385
 40
0.5384615384615385
 40
0.6153846153846154
 40
0.6153846153846154
 40
0.6153846153846154
 40
0.6153846153846154
 40
0.6923076923076923
 40
0.6923076923076923
 40
0.6923076923076923
 40
0.6923076923076923
 40
0.7692307692307692
 40
0.7692307692307692
 40
0.7692307692307692
 40
0.7692307692307692
 40
0.846153846153846
 40
0.846153846153846
 40
0.846153846153846
 40
0.846153846153846
 40
0.9230769230769229
 40
0.9230769230769229
 40
0.9230769230769229
 40
0.9230769230769229
 40
1.0
 40
1.0
 40
1.0
 40
1.0
 10
499.0418
 20
-3.5747
 30
0.0
 10
499.0418
 20
-3.5747
 30
0.0
 10
499.0418
 20
-3.3842
 30
0.0
 10
499.0418
 20
-3.3842
 30
0.0
 10
499.0418
 20
-3.3842
 30
0.0
 10
499.0418
 20
-3.3842
 30
0.0
 10
499.2323
 20
-3.0244
 30
0.0
 10
499.2323
 20
-3.0244
 30
0.0
 10
499.2323
 20
-3.0244
 30
0.0
 10
499.2323
 20
-3.0244
 30
0.0
 10
499.4016
 20
-2.855
 30
0.0
 10
499.4016
 20
-2.855
 30
0.0
 10
499.4016
 20
-2.855
 30
0.0
 10
499.4016
 20
-2.855
 30
0.0
 10
499.7614
 20
-2.6857
 30
0.0
 10
499.7614
 20
-2.6857
 30
0.0
 10
499.7614
 20
-2.6857
 30
0.0
 10
499.7614
 20
-2.6857
 30
0.0
 10
500.4599
 20
-2.6857
 30
0.0
 10
500.4599
 20
-2.6857
 30
0.0
 10
500.4599
 20
-2.6857
 30
0.0
 10
500.4599
 20
-2.6857
 30
0.0
 10
500.8198
 20
-2.855
 30
0.0
 10
500.8198
 20
-2.855
 30
0.0
 10
500.8198
 20
-2.855
 30
0.0
 10
500.8198
 20
-2.855
 30
0.0
 10
501.0103
 20
-3.0244
 30
0.0
 10
501.0103
 20
-3.0244
 30
0.0
 10
501.0103
 20
-3.0244
 30
0.0
 10
501.0103
 20
-3.0244
 30
0.0
 10
501.1796
 20
-3.3842
 30
0.0
 10
501.1796
 20
-3.3842
 30
0.0
 10
501.1796
 20
-3.3842
 30
0.0
 10
501.1796
 20
-3.3842
 30
0.0
 10
501.1796
 20
-3.744
 30
0.0
 10
501.1796
 20
-3.744
 30
0.0
 10
501.1796
 20
-3.744
 30
0.0
 10
501.1796
 20
-3.744
 30
0.0
 10
501.0103
 20
-4.1039
 30
0.0
 10
501.0103
 20
-4.1039
 30
0.0
 10
501.0103
 20
-4.1039
 30
0.0
 10
501.0103
 20
-4.1039
 30
0.0
 10
500.6504
 20
-4.633
 30
0.0
 10
500.6504
 20
-4.633
 30
0.0
 10
500.6504
 20
-4.633
 30
0.0
 10
500.6504
 20
-4.633
 30
0.0
 10
498.8724
 20
-6.411
 30
0.0
 10
498.8724
 20
-6.411
 30
0.0
 10
498.8724
 20
-6.411
 30
0.0
 10
498.8724
 20
-6.411
 30
0.0
 10
501.3489
 20
-6.411
 30
0.0
 10
501.3489
 20
-6.411
 30
0.0
  0
SPLINE
  5
1E2
330
1F
100
AcDbEntity
  8
DEFPOINTS
370
    25
100
AcDbSpline
210
0.0
220
0.0
230
1.0
 70
    24
 71
     3
 72
     8
 73
     4
 74
     0
 42
0.0000000001
 43
0.0000000001
 40
0.0
 40
0.0
 40
0.0
 40
0.0
 40
1.0
 40
1.0
 40
1.0
 40
1.0
 10
435.4994
 20
11.9405
 30
0.0
 10
435.4994
 20
11.9405
 30
0.0
 10
435.4994
 20
-1.3099
 30
0.0
 10
435.4994
 20
-1.3099
 30
0.0
  0
SPLINE
  5
1E3
330
1F
100
AcDbEntity
  8
DEFPOINTS
370
    25
100
AcDbSpline
210
0.0
220
0.0
230
1.0
 70
    24
 71
     3
 72
     8
 73
     4
 74
     0
 42
0.0000000001
 43
0.0000000001
 40
0.0
 40
0.0
 40
0.0
 40
0.0
 40
1.0
 40
1.0
 40
1.0
 40
1.0
 10
557.6099
 20
13.3163
 30
0.0
 10
557.6099
 20
13.3163
 30
0.0
 10
557.6099
 20
-1.3099
 30
0.0
 10
557.6099
 20
-1.3099
 30
0.0
  0
SPLINE
  5
1E4
330
1F
100
AcDbEntity
  8
DEFPOINTS
370
    25
100
AcDbSpline
210
0.0
220
0.0
230
1.0
 70
    24
 71
     3
 72
     8
 73
     4
 74
     0
 42
0.0000000001
 43
0.0000000001
 40
0.0
 40
0.0
 40
0.0
 40
0.0
 40
1.0
 40
1.0
 40
1.0
 40
1.0
 10
439.2459
 20
0.5528
 30
0.0
 10
439.2459
 20
0.5528
 30
0.0
 10
553.8634
 20
0.5528
 30
0.0
 10
553.8634
 20
0.5528
 30
0.0
  0
SPLINE
  5
1E5
330
1F
100
AcDbEntity
  8
DEFPOINTS
100
AcDbSpline
210
0.0
220
0.0
230
1.0
 70
    11
 71
     3
 72
    16
 73
    12
 74
     0
 42
0.0000000001
 43
0.0000000001
 40
0.0
 40
0.0
 40
0.0
 40
0.0
 40
0.3333333333333333
 40
0.3333333333333333
 40
0.3333333333333333
 40
0.3333333333333333
 40
0.6666666666666666
 40
0.6666666666666666
 40
0.6666666666666666
 40
0.6666666666666666
 40
1.0
 40
1.0
 40
1.0
 40
1.0
 10
439.2459
 20
1.1878
 30
0.0
 10
439.2459
 20
1.1878
 30
0.0
 10
439.2459
 20
-0.061
 30
0.0
 10
439.2459
 20
-0.061
 30
0.0
 10
439.2459
 20
-0.061
 30
0.0
 10
439.2459
 20
-0.061
 30
0.0
 10
435.4994
 20
0.5528
 30
0.0
 10
435.4994
 20
0.5528
 30
0.0
 10
435.4994
 20
0.5528
 30
0.0
 10
435.4994
 20
0.5528
 30
0.0
 10
439.2459
 20
1.1878
 30
0.0
 10
439.2459
 20
1.1878
 30
0.0
  0
SPLINE
  5
1E6
330
1F
100
AcDbEntity
  8
DEFPOINTS
100
AcDbSpline
210
0.0
220
0.0
230
1.0
 70
    11
 71
     3
 72
    16
 73
    12
 74
     0
 42
0.0000000001
 43
0.0000000001
 40
0.0
 40
0.0
 40
0.0
 40
0.0
 40
0.3333333333333333
 40
0.3333333333333333
 40
0.3333333333333333
 40
0.3333333333333333
 40
0.6666666666666666
 40
0.6666666666666666
 40
0.6666666666666666
 40
0.6666666666666666
 40
1.0
 40
1.0
 40
1.0
 40
1.0
 10
553.8634
 20
1.1878
 30
0.0
 10
553.8634
 20
1.1878
 30
0.0
 10
553.8634
 20
-0.061
 30
0.0
 10
553.8634
 20
-0.061
 30
0.0
 10
553.8634
 20
-0.061
 30
0.0
 10
553.8634
 20
-0.061
 30
0.0
 10
557.6099
 20
0.5528
 30
0.0
 10
557.6099
 20
0.5528
 30
0.0
 10
557.6099
 20
0.5528
 30
0.0
 10
557.6099
 20
0.5528
 30
0.0
 10
553.8634
 20
1.1878
 30
0.0
 10
553.8634
 20
1.1878
 30
0.0
  0
SPLINE
  5
1E7
330
1F
100
AcDbEntity
  8
DEFPOINTS
370
    25
100
AcDbSpline
210
0.0
220
0.0
230
1.0
 70
    11
 71
     3
 72
    96
 73
    92
 74
     0
 42
0.0000000001
 43
0.0000000001
 40
0.0
 40
0.0
 40
0.0
 40
0.0
 40
0.0434782608695652
 40
0.0434782608695652
 40
0.0434782608695652
 40
0.0434782608695652
 40
0.0869565217391304
 40
0.0869565217391304
 40
0.0869565217391304
 40
0.0869565217391304
 40
0.1304347826086956
 40
0.1304347826086956
 40
0.1304347826086956
 40
0.1304347826086956
 40
0.1739130434782609
 40
0.1739130434782609
 40
0.1739130434782609
 40
0.1739130434782609
 40
0.2173913043478261
 40
0.2173913043478261
 40
0.2173913043478261
 40
0.2173913043478261
 40
0.2608695652173913
 40
0.2608695652173913
 40
0.2608695652173913
 40
0.2608695652173913
 40
0.3043478260869565
 40
0.3043478260869565
 40
0.3043478260869565
 40
0.3043478260869565
 40
0.3478260869565217
 40
0.3478260869565217
 40
0.3478260869565217
 40
0.3478260869565217
 40
0.3913043478260869
 40
0.3913043478260869
 40
0.3913043478260869
 40
0.3913043478260869
 40
0.4347826086956521
 40
0.4347826086956521
 40
0.4347826086956521
 40
0.4347826086956521
 40
0.4782608695652173
 40
0.4782608695652173
 40
0.4782608695652173
 40
0.4782608695652173
 40
0.5217391304347825
 40
0.5217391304347825
 40
0.5217391304347825
 40
0.5217391304347825
 40
0.5652173913043477
 40
0.5652173913043477
 40
0.5652173913043477
 40
0.5652173913043477
 40
0.6086956521739129
 40
0.6086956521739129
 40
0.6086956521739129
 40
0.6086956521739129
 40
0.652173913043478
 40
0.652173913043478
 40
0.652173913043478
 40
0.652173913043478
 40
0.6956521739130432
 40
0.6956521739130432
 40
0.6956521739130432
 40
0.6956521739130432
 40
0.7391304347826084
 40
0.7391304347826084
 40
0.7391304347826084
 40
0.7391304347826084
 40
0.7826086956521736
 40
0.7826086956521736
 40
0.7826086956521736
 40
0.7826086956521736
 40
0.8260869565217388
 40
0.8260869565217388
 40
0.8260869565217388
 40
0.8260869565217388
 40
0.869565217391304
 40
0.869565217391304
 40
0.869565217391304
 40
0.869565217391304
 40
0.9130434782608692
 40
0.9130434782608692
 40
0.9130434782608692
 40
0.9130434782608692
 40
0.9565217391304344
 40
0.9565217391304344
 40
0.9565217391304344
 40
0.9565217391304344
 40
1.0
 40
1.0
 40
1.0
 40
1.0
 10
493.0728
 20
4.4475
 30
0.0
 10
493.0728
 20
4.4475
 30
0.0
 10
492.5436
 20
4.2781
 30
0.0
 10
492.5436
 20
4.2781
 30
0.0
 10
492.5436
 20
4.2781
 30
0.0
 10
491.7456
 20
2.9281
 30
0.0
 10
493.3412
 20
3.005
 30
0.0
 10
494.1523
 20
2.6695
 30
0.0
 10
494.1523
 20
2.6695
 30
0.0
 10
494.1523
 20
2.6695
 30
0.0
 10
494.4909
 20
2.3096
 30
0.0
 10
494.4909
 20
2.3096
 30
0.0
 10
494.4909
 20
2.3096
 30
0.0
 10
494.4909
 20
2.3096
 30
0.0
 10
494.6814
 20
1.9498
 30
0.0
 10
494.6814
 20
1.9498
 30
0.0
 10
494.6814
 20
1.9498
 30
0.0
 10
494.6814
 20
1.9498
 30
0.0
 10
494.6814
 20
1.4206
 30
0.0
 10
494.6814
 20
1.4206
 30
0.0
 10
494.6814
 20
1.4206
 30
0.0
 10
494.6814
 20
1.4206
 30
0.0
 10
494.4909
 20
1.0608
 30
0.0
 10
494.4909
 20
1.0608
 30
0.0
 10
494.4909
 20
1.0608
 30
0.0
 10
494.4909
 20
1.0608
 30
0.0
 10
494.3216
 20
0.8915
 30
0.0
 10
494.3216
 20
0.8915
 30
0.0
 10
494.3216
 20
0.8915
 30
0.0
 10
494.3216
 20
0.8915
 30
0.0
 10
493.7924
 20
0.701
 30
0.0
 10
493.7924
 20
0.701
 30
0.0
 10
493.7924
 20
0.701
 30
0.0
 10
493.7924
 20
0.701
 30
0.0
 10
493.0728
 20
0.701
 30
0.0
 10
493.0728
 20
0.701
 30
0.0
 10
493.0728
 20
0.701
 30
0.0
 10
493.0728
 20
0.701
 30
0.0
 10
492.5436
 20
0.8915
 30
0.0
 10
492.5436
 20
0.8915
 30
0.0
 10
492.5436
 20
0.8915
 30
0.0
 10
492.5436
 20
0.8915
 30
0.0
 10
492.3531
 20
1.0608
 30
0.0
 10
492.3531
 20
1.0608
 30
0.0
 10
492.3531
 20
1.0608
 30
0.0
 10
492.3531
 20
1.0608
 30
0.0
 10
492.1838
 20
1.4206
 30
0.0
 10
492.1838
 20
1.4206
 30
0.0
 10
492.1838
 20
1.4206
 30
0.0
 10
492.1838
 20
1.4206
 30
0.0
 10
492.1838
 20
1.9498
 30
0.0
 10
492.1838
 20
1.9498
 30
0.0
 10
492.1838
 20
1.9498
 30
0.0
 10
492.1838
 20
1.9498
 30
0.0
 10
492.3531
 20
2.3096
 30
0.0
 10
492.3531
 20
2.3096
 30
0.0
 10
492.3531
 20
2.3096
 30
0.0
 10
492.3531
 20
2.3096
 30
0.0
 10
492.7129
 20
2.6695
 30
0.0
 10
492.7129
 20
2.6695
 30
0.0
 10
492.7129
 20
2.6695
 30
0.0
 10
492.7129
 20
2.6695
 30
0.0
 10
493.2633
 20
2.8388
 30
0.0
 10
493.2633
 20
2.8388
 30
0.0
 10
493.2633
 20
2.8388
 30
0.0
 10
493.2633
 20
2.8388
 30
0.0
 10
493.9618
 20
3.0293
 30
0.0
 10
493.9618
 20
3.0293
 30
0.0
 10
493.9618
 20
3.0293
 30
0.0
 10
493.9618
 20
3.0293
 30
0.0
 10
494.3216
 20
3.1986
 30
0.0
 10
494.3216
 20
3.1986
 30
0.0
 10
494.3216
 20
3.1986
 30
0.0
 10
494.3216
 20
3.1986
 30
0.0
 10
494.4909
 20
3.5585
 30
0.0
 10
494.4909
 20
3.5585
 30
0.0
 10
494.4909
 20
3.5585
 30
0.0
 10
494.4909
 20
3.5585
 30
0.0
 10
494.4909
 20
3.9183
 30
0.0
 10
494.4909
 20
3.9183
 30
0.0
 10
494.4909
 20
3.9183
 30
0.0
 10
494.4909
 20
3.9183
 30
0.0
 10
494.3216
 20
4.2781
 30
0.0
 10
494.3216
 20
4.2781
 30
0.0
 10
494.3216
 20
4.2781
 30
0.0
 10
494.3216
 20
4.2781
 30
0.0
 10
493.7924
 20
4.4475
 30
0.0
 10
493.7924
 20
4.4475
 30
0.0
 10
493.7924
 20
4.4475
 30
0.0
 10
493.7924
 20
4.4475
 30
0.0
 10
493.0728
 20
4.4475
 30
0.0
 10
493.0728
 20
4.4475
 30
0.0
  0
SPLINE
  5
1E8
330
1F
100
AcDbEntity
  8
DEFPOINTS
370
    25
100
AcDbSpline
210
0.0
220
0.0
230
1.0
 70
     8
 71
     3
 72
    16
 73
    12
 74
     0
 42
0.0000000001
 43
0.0000000001
 40
0.0
 40
0.0
 40
0.0
 40
0.0
 40
0.3333333333333333
 40
0.3333333333333333
 40
0.3333333333333333
 40
0.3333333333333333
 40
0.6666666666666666
 40
0.6666666666666666
 40
0.6666666666666666
 40
0.6666666666666666
 40
1.0
 40
1.0
 40
1.0
 40
1.0
 10
495.7398
 20
3.7278
 30
0.0
 10
495.7398
 20
3.7278
 30
0.0
 10
496.0996
 20
3.9183
 30
0.0
 10
496.0996
 20
3.9183
 30
0.0
 10
496.0996
 20
3.9183
 30
0.0
 10
496.0996
 20
3.9183
 30
0.0
 10
496.6288
 20
4.4475
 30
0.0
 10
496.6288
 20
4.4475
 30
0.0
 10
496.6288
 20
4.4475
 30
0.0
 10
496.6288
 20
4.4475
 30
0.0
 10
496.6288
 20
0.701
 30
0.0
 10
496.6288
 20
0.701
 30
0.0
  0
SPLINE
  5
1E9
330
1F
100
AcDbEntity
  8
DEFPOINTS
370
    25
100
AcDbSpline
210
0.0
220
0.0
230
1.0
 70
     8
 71
     3
 72
    92
 73
    88
 74
     0
 42
0.0000000001
 43
0.0000000001
 40
0.0
 40
0.0
 40
0.0
 40
0.0
 40
0.0454545454545455
 40
0.0454545454545455
 40
0.0454545454545455
 40
0.0454545454545455
 40
0.0909090909090909
 40
0.0909090909090909
 40
0.0909090909090909
 40
0.0909090909090909
 40
0.1363636363636364
 40
0.1363636363636364
 40
0.1363636363636364
 40
0.1363636363636364
 40
0.1818181818181818
 40
0.1818181818181818
 40
0.1818181818181818
 40
0.1818181818181818
 40
0.2272727272727273
 40
0.2272727272727273
 40
0.2272727272727273
 40
0.2272727272727273
 40
0.2727272727272728
 40
0.2727272727272728
 40
0.2727272727272728
 40
0.2727272727272728
 40
0.3181818181818182
 40
0.3181818181818182
 40
0.3181818181818182
 40
0.3181818181818182
 40
0.3636363636363637
 40
0.3636363636363637
 40
0.3636363636363637
 40
0.3636363636363637
 40
0.4090909090909092
 40
0.4090909090909092
 40
0.4090909090909092
 40
0.4090909090909092
 40
0.4545454545454546
 40
0.4545454545454546
 40
0.4545454545454546
 40
0.4545454545454546
 40
0.5000000000000001
 40
0.5000000000000001
 40
0.5000000000000001
 40
0.5000000000000001
 40
0.5454545454545455
 40
0.5454545454545455
 40
0.5454545454545455
 40
0.5454545454545455
 40
0.5909090909090909
 40
0.5909090909090909
 40
0.5909090909090909
 40
0.5909090909090909
 40
0.6363636363636364
 40
0.6363636363636364
 40
0.6363636363636364
 40
0.6363636363636364
 40
0.6818181818181818
 40
0.6818181818181818
 40
0.6818181818181818
 40
0.6818181818181818
 40
0.7272727272727272
 40
0.7272727272727272
 40
0.7272727272727272
 40
0.7272727272727272
 40
0.7727272727272726
 40
0.7727272727272726
 40
0.7727272727272726
 40
0.7727272727272726
 40
0.818181818181818
 40
0.818181818181818
 40
0.818181818181818
 40
0.818181818181818
 40
0.8636363636363634
 40
0.8636363636363634
 40
0.8636363636363634
 40
0.8636363636363634
 40
0.9090909090909088
 40
0.9090909090909088
 40
0.9090909090909088
 40
0.9090909090909088
 40
0.9545454545454543
 40
0.9545454545454543
 40
0.9545454545454543
 40
0.9545454545454543
 40
1.0
 40
1.0
 40
1.0
 40
1.0
 10
500.7351
 20
3.9183
 30
0.0
 10
500.7351
 20
3.9183
 30
0.0
 10
500.5658
 20
4.2781
 30
0.0
 10
500.5658
 20
4.2781
 30
0.0
 10
500.5658
 20
4.2781
 30
0.0
 10
500.5658
 20
4.2781
 30
0.0
 10
500.0154
 20
4.4475
 30
0.0
 10
500.0154
 20
4.4475
 30
0.0
 10
500.0154
 20
4.4475
 30
0.0
 10
500.0154
 20
4.4475
 30
0.0
 10
499.6768
 20
4.4475
 30
0.0
 10
499.6768
 20
4.4475
 30
0.0
 10
499.6768
 20
4.4475
 30
0.0
 10
499.6768
 20
4.4475
 30
0.0
 10
499.1264
 20
4.2781
 30
0.0
 10
499.1264
 20
4.2781
 30
0.0
 10
499.1264
 20
4.2781
 30
0.0
 10
499.1264
 20
4.2781
 30
0.0
 10
498.7666
 20
3.7278
 30
0.0
 10
498.7666
 20
3.7278
 30
0.0
 10
498.7666
 20
3.7278
 30
0.0
 10
498.7666
 20
3.7278
 30
0.0
 10
498.5973
 20
2.8388
 30
0.0
 10
498.5973
 20
2.8388
 30
0.0
 10
498.5973
 20
2.8388
 30
0.0
 10
498.5973
 20
2.8388
 30
0.0
 10
498.5973
 20
1.9498
 30
0.0
 10
498.5973
 20
1.9498
 30
0.0
 10
498.5973
 20
1.9498
 30
0.0
 10
498.5973
 20
1.9498
 30
0.0
 10
498.7666
 20
1.2301
 30
0.0
 10
498.7666
 20
1.2301
 30
0.0
 10
498.7666
 20
1.2301
 30
0.0
 10
498.7666
 20
1.2301
 30
0.0
 10
499.1264
 20
0.8915
 30
0.0
 10
499.1264
 20
0.8915
 30
0.0
 10
499.1264
 20
0.8915
 30
0.0
 10
499.1264
 20
0.8915
 30
0.0
 10
499.6768
 20
0.701
 30
0.0
 10
499.6768
 20
0.701
 30
0.0
 10
499.6768
 20
0.701
 30
0.0
 10
499.6768
 20
0.701
 30
0.0
 10
499.8461
 20
0.701
 30
0.0
 10
499.8461
 20
0.701
 30
0.0
 10
499.8461
 20
0.701
 30
0.0
 10
499.8461
 20
0.701
 30
0.0
 10
500.3753
 20
0.8915
 30
0.0
 10
500.3753
 20
0.8915
 30
0.0
 10
500.3753
 20
0.8915
 30
0.0
 10
500.3753
 20
0.8915
 30
0.0
 10
500.7351
 20
1.2301
 30
0.0
 10
500.7351
 20
1.2301
 30
0.0
 10
500.7351
 20
1.2301
 30
0.0
 10
500.7351
 20
1.2301
 30
0.0
 10
500.9044
 20
1.7805
 30
0.0
 10
500.9044
 20
1.7805
 30
0.0
 10
500.9044
 20
1.7805
 30
0.0
 10
500.9044
 20
1.7805
 30
0.0
 10
500.9044
 20
1.9498
 30
0.0
 10
500.9044
 20
1.9498
 30
0.0
 10
500.9044
 20
1.9498
 30
0.0
 10
500.9044
 20
1.9498
 30
0.0
 10
500.7351
 20
2.479
 30
0.0
 10
500.7351
 20
2.479
 30
0.0
 10
500.7351
 20
2.479
 30
0.0
 10
500.7351
 20
2.479
 30
0.0
 10
500.3753
 20
2.8388
 30
0.0
 10
500.3753
 20
2.8388
 30
0.0
 10
500.3753
 20
2.8388
 30
0.0
 10
500.3753
 20
2.8388
 30
0.0
 10
499.8461
 20
3.0293
 30
0.0
 10
499.8461
 20
3.0293
 30
0.0
 10
499.8461
 20
3.0293
 30
0.0
 10
499.8461
 20
3.0293
 30
0.0
 10
499.6768
 20
3.0293
 30
0.0
 10
499.6768
 20
3.0293
 30
0.0
 10
499.6768
 20
3.0293
 30
0.0
 10
499.6768
 20
3.0293
 30
0.0
 10
499.1264
 20
2.8388
 30
0.0
 10
499.1264
 20
2.8388
 30
0.0
 10
499.1264
 20
2.8388
 30
0.0
 10
499.1264
 20
2.8388
 30
0.0
 10
498.7666
 20
2.479
 30
0.0
 10
498.7666
 20
2.479
 30
0.0
 10
498.7666
 20
2.479
 30
0.0
 10
498.7666
 20
2.479
 30
0.0
 10
498.5973
 20
1.9498
 30
0.0
 10
498.5973
 20
1.9498
 30
0.0
  0
SPLINE
  5
1EA
330
1F
100
AcDbEntity
  8
DEFPOINTS
370
    25
100
AcDbSpline
210
0.0
220
0.0
230
1.0
 70
    24
 71
     3
 72
     8
 73
     4
 74
     0
 42
0.0000000001
 43
0.0000000001
 40
0.0
 40
0.0
 40
0.0
 40
0.0
 40
1.0
 40
1.0
 40
1.0
 40
1.0
 10
424.4504
 20
94.1941
 30
0.0
 10
424.4504
 20
94.1941
 30
0.0
 10
433.8908
 20
85.0501
 30
0.0
 10
433.8908
 20
85.0501
 30
0.0
  0
SPLINE
  5
1EB
330
1F
100
AcDbEntity
  8
DEFPOINTS
370
    25
100
AcDbSpline
210
0.0
220
0.0
230
1.0
 70
     8
 71
     3
 72
    44
 73
    40
 74
     0
 42
0.0000000001
 43
0.0000000001
 40
0.0
 40
0.0
 40
0.0
 40
0.0
 40
0.1
 40
0.1
 40
0.1
 40
0.1
 40
0.2
 40
0.2
 40
0.2
 40
0.2
 40
0.3
 40
0.3
 40
0.3
 40
0.3
 40
0.4
 40
0.4
 40
0.4
 40
0.4
 40
0.5
 40
0.5
 40
0.5
 40
0.5
 40
0.6
 40
0.6
 40
0.6
 40
0.6
 40
0.7
 40
0.7
 40
0.7
 40
0.7
 40
0.7999999999999999
 40
0.7999999999999999
 40
0.7999999999999999
 40
0.7999999999999999
 40
0.8999999999999999
 40
0.8999999999999999
 40
0.8999999999999999
 40
0.8999999999999999
 40
1.0
 40
1.0
 40
1.0
 40
1.0
 10
424.6621
 20
94.1941
 30
0.0
 10
424.6621
 20
94.1941
 30
0.0
 10
427.2656
 20
96.8823
 30
0.0
 10
427.2656
 20
96.8823
 30
0.0
 10
427.2656
 20
96.8823
 30
0.0
 10
427.2656
 20
96.8823
 30
0.0
 10
428.4298
 20
95.7605
 30
0.0
 10
428.4298
 20
95.7605
 30
0.0
 10
428.4298
 20
95.7605
 30
0.0
 10
428.4298
 20
95.7605
 30
0.0
 10
428.6838
 20
95.2525
 30
0.0
 10
428.6838
 20
95.2525
 30
0.0
 10
428.6838
 20
95.2525
 30
0.0
 10
428.6838
 20
95.2525
 30
0.0
 10
428.6838
 20
95.0196
 30
0.0
 10
428.6838
 20
95.0196
 30
0.0
 10
428.6838
 20
95.0196
 30
0.0
 10
428.6838
 20
95.0196
 30
0.0
 10
428.5779
 20
94.6386
 30
0.0
 10
428.5779
 20
94.6386
 30
0.0
 10
428.5779
 20
94.6386
 30
0.0
 10
428.5779
 20
94.6386
 30
0.0
 10
428.3239
 20
94.3635
 30
0.0
 10
428.3239
 20
94.3635
 30
0.0
 10
428.3239
 20
94.3635
 30
0.0
 10
428.3239
 20
94.3635
 30
0.0
 10
427.9429
 20
94.2365
 30
0.0
 10
427.9429
 20
94.2365
 30
0.0
 10
427.9429
 20
94.2365
 30
0.0
 10
427.9429
 20
94.2365
 30
0.0
 10
427.6889
 20
94.2365
 30
0.0
 10
427.6889
 20
94.2365
 30
0.0
 10
427.6889
 20
94.2365
 30
0.0
 10
427.6889
 20
94.2365
 30
0.0
 10
427.1809
 20
94.4905
 30
0.0
 10
427.1809
 20
94.4905
 30
0.0
 10
427.1809
 20
94.4905
 30
0.0
 10
427.1809
 20
94.4905
 30
0.0
 10
426.0379
 20
95.5911
 30
0.0
 10
426.0379
 20
95.5911
 30
0.0
  0
SPLINE
  5
1EC
330
1F
100
AcDbEntity
  8
DEFPOINTS
370
    25
100
AcDbSpline
210
0.0
220
0.0
230
1.0
 70
    24
 71
     3
 72
     8
 73
     4
 74
     0
 42
0.0000000001
 43
0.0000000001
 40
0.0
 40
0.0
 40
0.0
 40
0.0
 40
1.0
 40
1.0
 40
1.0
 40
1.0
 10
426.9269
 20
94.7233
 30
0.0
 10
426.9269
 20
94.7233
 30
0.0
 10
426.4613
 20
92.4585
 30
0.0
 10
426.4613
 20
92.4585
 30
0.0
  0
SPLINE
  5
1ED
330
1F
100
AcDbEntity
  8
DEFPOINTS
370
    25
100
AcDbSpline
210
0.0
220
0.0
230
1.0
 70
     8
 71
     3
 72
    16
 73
    12
 74
     0
 42
0.0000000001
 43
0.0000000001
 40
0.0
 40
0.0
 40
0.0
 40
0.0
 40
0.3333333333333333
 40
0.3333333333333333
 40
0.3333333333333333
 40
0.3333333333333333
 40
0.6666666666666666
 40
0.6666666666666666
 40
0.6666666666666666
 40
0.6666666666666666
 40
1.0
 40
1.0
 40
1.0
 40
1.0
 10
429.4669
 20
93.7708
 30
0.0
 10
429.4669
 20
93.7708
 30
0.0
 10
429.8479
 20
93.6438
 30
0.0
 10
429.8479
 20
93.6438
 30
0.0
 10
429.8479
 20
93.6438
 30
0.0
 10
429.8479
 20
93.6438
 30
0.0
 10
430.6099
 20
93.665
 30
0.0
 10
430.6099
 20
93.665
 30
0.0
 10
430.6099
 20
93.665
 30
0.0
 10
430.6099
 20
93.665
 30
0.0
 10
428.0064
 20
90.9768
 30
0.0
 10
428.0064
 20
90.9768
 30
0.0
  0
SPLINE
  5
1EE
330
1F
100
AcDbEntity
  8
DEFPOINTS
370
    25
100
AcDbSpline
210
0.0
220
0.0
230
1.0
 70
     8
 71
     3
 72
    68
 73
    64
 74
     0
 42
0.0000000001
 43
0.0000000001
 40
0.0
 40
0.0
 40
0.0
 40
0.0
 40
0.0625
 40
0.0625
 40
0.0625
 40
0.0625
 40
0.125
 40
0.125
 40
0.125
 40
0.125
 40
0.1875
 40
0.1875
 40
0.1875
 40
0.1875
 40
0.25
 40
0.25
 40
0.25
 40
0.25
 40
0.3125
 40
0.3125
 40
0.3125
 40
0.3125
 40
0.375
 40
0.375
 40
0.375
 40
0.375
 40
0.4375
 40
0.4375
 40
0.4375
 40
0.4375
 40
0.5
 40
0.5
 40
0.5
 40
0.5
 40
0.5625
 40
0.5625
 40
0.5625
 40
0.5625
 40
0.625
 40
0.625
 40
0.625
 40
0.625
 40
0.6875
 40
0.6875
 40
0.6875
 40
0.6875
 40
0.75
 40
0.75
 40
0.75
 40
0.75
 40
0.8125
 40
0.8125
 40
0.8125
 40
0.8125
 40
0.875
 40
0.875
 40
0.875
 40
0.875
 40
0.9375
 40
0.9375
 40
0.9375
 40
0.9375
 40
1.0
 40
1.0
 40
1.0
 40
1.0
 10
433.5521
 20
90.8075
 30
0.0
 10
433.5521
 20
90.8075
 30
0.0
 10
432.2609
 20
92.0351
 30
0.0
 10
432.2609
 20
92.0351
 30
0.0
 10
432.2609
 20
92.0351
 30
0.0
 10
432.2609
 20
92.0351
 30
0.0
 10
431.0121
 20
91.0191
 30
0.0
 10
431.0121
 20
91.0191
 30
0.0
 10
431.0121
 20
91.0191
 30
0.0
 10
431.0121
 20
91.0191
 30
0.0
 10
431.2661
 20
91.0191
 30
0.0
 10
431.2661
 20
91.0191
 30
0.0
 10
431.2661
 20
91.0191
 30
0.0
 10
431.2661
 20
91.0191
 30
0.0
 10
431.7741
 20
90.7863
 30
0.0
 10
431.7741
 20
90.7863
 30
0.0
 10
431.7741
 20
90.7863
 30
0.0
 10
431.7741
 20
90.7863
 30
0.0
 10
432.1551
 20
90.4053
 30
0.0
 10
432.1551
 20
90.4053
 30
0.0
 10
432.1551
 20
90.4053
 30
0.0
 10
432.1551
 20
90.4053
 30
0.0
 10
432.4303
 20
89.8973
 30
0.0
 10
432.4303
 20
89.8973
 30
0.0
 10
432.4303
 20
89.8973
 30
0.0
 10
432.4303
 20
89.8973
 30
0.0
 10
432.4303
 20
89.4105
 30
0.0
 10
432.4303
 20
89.4105
 30
0.0
 10
432.4303
 20
89.4105
 30
0.0
 10
432.4303
 20
89.4105
 30
0.0
 10
432.1974
 20
88.9025
 30
0.0
 10
432.1974
 20
88.9025
 30
0.0
 10
432.1974
 20
88.9025
 30
0.0
 10
432.1974
 20
88.9025
 30
0.0
 10
431.9434
 20
88.6273
 30
0.0
 10
431.9434
 20
88.6273
 30
0.0
 10
431.9434
 20
88.6273
 30
0.0
 10
431.9434
 20
88.6273
 30
0.0
 10
431.4354
 20
88.3733
 30
0.0
 10
431.4354
 20
88.3733
 30
0.0
 10
431.4354
 20
88.3733
 30
0.0
 10
431.4354
 20
88.3733
 30
0.0
 10
430.9486
 20
88.3733
 30
0.0
 10
430.9486
 20
88.3733
 30
0.0
 10
430.9486
 20
88.3733
 30
0.0
 10
430.9486
 20
88.3733
 30
0.0
 10
430.4406
 20
88.6061
 30
0.0
 10
430.4406
 20
88.6061
 30
0.0
 10
430.4406
 20
88.6061
 30
0.0
 10
430.4406
 20
88.6061
 30
0.0
 10
430.0384
 20
88.9871
 30
0.0
 10
430.0384
 20
88.9871
 30
0.0
 10
430.0384
 20
88.9871
 30
0.0
 10
430.0384
 20
88.9871
 30
0.0
 10
429.7844
 20
89.474
 30
0.0
 10
429.7844
 20
89.474
 30
0.0
 10
429.7844
 20
89.474
 30
0.0
 10
429.7844
 20
89.474
 30
0.0
 10
429.7844
 20
89.728
 30
0.0
 10
429.7844
 20
89.728
 30
0.0
 10
429.7844
 20
89.728
 30
0.0
 10
429.7844
 20
89.728
 30
0.0
 10
429.9114
 20
90.109
 30
0.0
 10
429.9114
 20
90.109
 30
0.0
  0
SPLINE
  5
1EF
330
1F
100
AcDbEntity
  8
DEFPOINTS
100
AcDbSpline
210
0.0
220
0.0
230
1.0
 70
    11
 71
     3
 72
    16
 73
    12
 74
     0
 42
0.0000000001
 43
0.0000000001
 40
0.0
 40
0.0
 40
0.0
 40
0.0
 40
0.3333333333333333
 40
0.3333333333333333
 40
0.3333333333333333
 40
0.3333333333333333
 40
0.6666666666666666
 40
0.6666666666666666
 40
0.6666666666666666
 40
0.6666666666666666
 40
1.0
 40
1.0
 40
1.0
 40
1.0
 10
434.3141
 20
85.4946
 30
0.0
 10
434.3141
 20
85.4946
 30
0.0
 10
433.4463
 20
84.6056
 30
0.0
 10
433.4463
 20
84.6056
 30
0.0
 10
433.4463
 20
84.6056
 30
0.0
 10
433.4463
 20
84.6056
 30
0.0
 10
436.5789
 20
82.4466
 30
0.0
 10
436.5789
 20
82.4466
 30
0.0
 10
436.5789
 20
82.4466
 30
0.0
 10
436.5789
 20
82.4466
 30
0.0
 10
434.3141
 20
85.4946
 30
0.0
 10
434.3141
 20
85.4946
 30
0.0
  0
SPLINE
  5
1F0
330
1F
100
AcDbEntity
  8
DEFPOINTS
370
    25
100
AcDbSpline
210
0.0
220
0.0
230
1.0
 70
    24
 71
     3
 72
     8
 73
     4
 74
     0
 42
0.0000000001
 43
0.0000000001
 40
0.0
 40
0.0
 40
0.0
 40
0.0
 40
1.0
 40
1.0
 40
1.0
 40
1.0
 10
566.8598
 20
95.8028
 30
0.0
 10
566.8598
 20
95.8028
 30
0.0
 10
558.6471
 20
85.5581
 30
0.0
 10
558.6471
 20
85.5581
 30
0.0
  0
SPLINE
  5
1F1
330
1F
100
AcDbEntity
  8
DEFPOINTS
370
    25
100
AcDbSpline
210
0.0
220
0.0
230
1.0
 70
     8
 71
     3
 72
    28
 73
    24
 74
     0
 42
0.0000000001
 43
0.0000000001
 40
0.0
 40
0.0
 40
0.0
 40
0.0
 40
0.1666666666666667
 40
0.1666666666666667
 40
0.1666666666666667
 40
0.1666666666666667
 40
0.3333333333333333
 40
0.3333333333333333
 40
0.3333333333333333
 40
0.3333333333333333
 40
0.5
 40
0.5
 40
0.5
 40
0.5
 40
0.6666666666666666
 40
0.6666666666666666
 40
0.6666666666666666
 40
0.6666666666666666
 40
0.8333333333333333
 40
0.8333333333333333
 40
0.8333333333333333
 40
0.8333333333333333
 40
1.0
 40
1.0
 40
1.0
 40
1.0
 10
560.9754
 20
88.6908
 30
0.0
 10
560.9754
 20
88.6908
 30
0.0
 10
558.0544
 20
91.0403
 30
0.0
 10
558.0544
 20
91.0403
 30
0.0
 10
558.0544
 20
91.0403
 30
0.0
 10
558.0544
 20
91.0403
 30
0.0
 10
559.0493
 20
92.2891
 30
0.0
 10
559.0493
 20
92.2891
 30
0.0
 10
559.0493
 20
92.2891
 30
0.0
 10
559.0493
 20
92.2891
 30
0.0
 10
559.5149
 20
92.5855
 30
0.0
 10
559.5149
 20
92.5855
 30
0.0
 10
559.5149
 20
92.5855
 30
0.0
 10
559.5149
 20
92.5855
 30
0.0
 10
559.7689
 20
92.6278
 30
0.0
 10
559.7689
 20
92.6278
 30
0.0
 10
559.7689
 20
92.6278
 30
0.0
 10
559.7689
 20
92.6278
 30
0.0
 10
560.1711
 20
92.5431
 30
0.0
 10
560.1711
 20
92.5431
 30
0.0
 10
560.1711
 20
92.5431
 30
0.0
 10
561.3526
 20
91.7773
 30
0.0
 10
559.9767
 20
90.5193
 30
0.0
 10
559.4303
 20
89.9185
 30
0.0
  0
SPLINE
  5
1F2
330
1F
100
AcDbEntity
  8
DEFPOINTS
370
    25
100
AcDbSpline
210
0.0
220
0.0
230
1.0
 70
    24
 71
     3
 72
     8
 73
     4
 74
     0
 42
0.0000000001
 43
0.0000000001
 40
0.0
 40
0.0
 40
0.0
 40
0.0
 40
1.0
 40
1.0
 40
1.0
 40
1.0
 10
560.2134
 20
90.8921
 30
0.0
 10
560.2134
 20
90.8921
 30
0.0
 10
562.5206
 20
90.6381
 30
0.0
 10
562.5206
 20
90.6381
 30
0.0
  0
SPLINE
  5
1F3
330
1F
100
AcDbEntity
  8
DEFPOINTS
370
    25
100
AcDbSpline
210
0.0
220
0.0
230
1.0
 70
     8
 71
     3
 72
    16
 73
    12
 74
     0
 42
0.0000000001
 43
0.0000000001
 40
0.0
 40
0.0
 40
0.0
 40
0.0
 40
0.3333333333333333
 40
0.3333333333333333
 40
0.3333333333333333
 40
0.3333333333333333
 40
0.6666666666666666
 40
0.6666666666666666
 40
0.6666666666666666
 40
0.6666666666666666
 40
1.0
 40
1.0
 40
1.0
 40
1.0
 10
560.9331
 20
93.5168
 30
0.0
 10
560.9331
 20
93.5168
 30
0.0
 10
561.0178
 20
93.8978
 30
0.0
 10
561.0178
 20
93.8978
 30
0.0
 10
561.0178
 20
93.8978
 30
0.0
 10
561.0178
 20
93.8978
 30
0.0
 10
560.9331
 20
94.6386
 30
0.0
 10
560.9331
 20
94.6386
 30
0.0
 10
560.9331
 20
94.6386
 30
0.0
 10
560.9331
 20
94.6386
 30
0.0
 10
563.8541
 20
92.3103
 30
0.0
 10
563.8541
 20
92.3103
 30
0.0
  0
SPLINE
  5
1F4
330
1F
100
AcDbEntity
  8
DEFPOINTS
370
    25
100
AcDbSpline
210
0.0
220
0.0
230
1.0
 70
     8
 71
     3
 72
    68
 73
    64
 74
     0
 42
0.0000000001
 43
0.0000000001
 40
0.0
 40
0.0
 40
0.0
 40
0.0
 40
0.0625
 40
0.0625
 40
0.0625
 40
0.0625
 40
0.125
 40
0.125
 40
0.125
 40
0.125
 40
0.1875
 40
0.1875
 40
0.1875
 40
0.1875
 40
0.25
 40
0.25
 40
0.25
 40
0.25
 40
0.3125
 40
0.3125
 40
0.3125
 40
0.3125
 40
0.375
 40
0.375
 40
0.375
 40
0.375
 40
0.4375
 40
0.4375
 40
0.4375
 40
0.4375
 40
0.5
 40
0.5
 40
0.5
 40
0.5
 40
0.5625
 40
0.5625
 40
0.5625
 40
0.5625
 40
0.625
 40
0.625
 40
0.625
 40
0.625
 40
0.6875
 40
0.6875
 40
0.6875
 40
0.6875
 40
0.75
 40
0.75
 40
0.75
 40
0.75
 40
0.8125
 40
0.8125
 40
0.8125
 40
0.8125
 40
0.875
 40
0.875
 40
0.875
 40
0.875
 40
0.9375
 40
0.9375
 40
0.9375
 40
0.9375
 40
1.0
 40
1.0
 40
1.0
 40
1.0
 10
563.4943
 20
97.856
 30
0.0
 10
563.4943
 20
97.856
 30
0.0
 10
562.3936
 20
96.459
 30
0.0
 10
562.3936
 20
96.459
 30
0.0
 10
562.3936
 20
96.459
 30
0.0
 10
562.3936
 20
96.459
 30
0.0
 10
563.5366
 20
95.316
 30
0.0
 10
563.5366
 20
95.316
 30
0.0
 10
563.5366
 20
95.316
 30
0.0
 10
563.5366
 20
95.316
 30
0.0
 10
563.4943
 20
95.57
 30
0.0
 10
563.4943
 20
95.57
 30
0.0
 10
563.4943
 20
95.57
 30
0.0
 10
563.4943
 20
95.57
 30
0.0
 10
563.7059
 20
96.0991
 30
0.0
 10
563.7059
 20
96.0991
 30
0.0
 10
563.7059
 20
96.0991
 30
0.0
 10
563.7059
 20
96.0991
 30
0.0
 10
564.0234
 20
96.5013
 30
0.0
 10
564.0234
 20
96.5013
 30
0.0
 10
564.0234
 20
96.5013
 30
0.0
 10
564.0234
 20
96.5013
 30
0.0
 10
564.5103
 20
96.8188
 30
0.0
 10
564.5103
 20
96.8188
 30
0.0
 10
564.5103
 20
96.8188
 30
0.0
 10
564.5103
 20
96.8188
 30
0.0
 10
564.9971
 20
96.8611
 30
0.0
 10
564.9971
 20
96.8611
 30
0.0
 10
564.9971
 20
96.8611
 30
0.0
 10
564.9971
 20
96.8611
 30
0.0
 10
565.5263
 20
96.6706
 30
0.0
 10
565.5263
 20
96.6706
 30
0.0
 10
565.5263
 20
96.6706
 30
0.0
 10
565.5263
 20
96.6706
 30
0.0
 10
565.8226
 20
96.459
 30
0.0
 10
565.8226
 20
96.459
 30
0.0
 10
565.8226
 20
96.459
 30
0.0
 10
565.8226
 20
96.459
 30
0.0
 10
566.1189
 20
95.9721
 30
0.0
 10
566.1189
 20
95.9721
 30
0.0
 10
566.1189
 20
95.9721
 30
0.0
 10
566.1189
 20
95.9721
 30
0.0
 10
566.1824
 20
95.4853
 30
0.0
 10
566.1824
 20
95.4853
 30
0.0
 10
566.1824
 20
95.4853
 30
0.0
 10
566.1824
 20
95.4853
 30
0.0
 10
565.9708
 20
94.9561
 30
0.0
 10
565.9708
 20
94.9561
 30
0.0
 10
565.9708
 20
94.9561
 30
0.0
 10
565.9708
 20
94.9561
 30
0.0
 10
565.6533
 20
94.5328
 30
0.0
 10
565.6533
 20
94.5328
 30
0.0
 10
565.6533
 20
94.5328
 30
0.0
 10
565.6533
 20
94.5328
 30
0.0
 10
565.1664
 20
94.2365
 30
0.0
 10
565.1664
 20
94.2365
 30
0.0
 10
565.1664
 20
94.2365
 30
0.0
 10
565.1664
 20
94.2365
 30
0.0
 10
564.9124
 20
94.1941
 30
0.0
 10
564.9124
 20
94.1941
 30
0.0
 10
564.9124
 20
94.1941
 30
0.0
 10
564.9124
 20
94.1941
 30
0.0
 10
564.5314
 20
94.2788
 30
0.0
 10
564.5314
 20
94.2788
 30
0.0
  0
SPLINE
  5
1F5
330
1F
100
AcDbEntity
  8
DEFPOINTS
100
AcDbSpline
210
0.0
220
0.0
230
1.0
 70
    11
 71
     3
 72
    16
 73
    12
 74
     0
 42
0.0000000001
 43
0.0000000001
 40
0.0
 40
0.0
 40
0.0
 40
0.0
 40
0.3333333333333333
 40
0.3333333333333333
 40
0.3333333333333333
 40
0.3333333333333333
 40
0.6666666666666666
 40
0.6666666666666666
 40
0.6666666666666666
 40
0.6666666666666666
 40
1.0
 40
1.0
 40
1.0
 40
1.0
 10
558.1603
 20
85.9603
 30
0.0
 10
558.1603
 20
85.9603
 30
0.0
 10
559.1339
 20
85.1771
 30
0.0
 10
559.1339
 20
85.1771
 30
0.0
 10
559.1339
 20
85.1771
 30
0.0
 10
559.1339
 20
85.1771
 30
0.0
 10
556.3188
 20
82.6371
 30
0.0
 10
556.3188
 20
82.6371
 30
0.0
 10
556.3188
 20
82.6371
 30
0.0
 10
556.3188
 20
82.6371
 30
0.0
 10
558.1603
 20
85.9603
 30
0.0
 10
558.1603
 20
85.9603
 30
0.0
  0
SPLINE
  5
1F6
330
1F
100
AcDbEntity
  8
DEFPOINTS
370
    25
100
AcDbSpline
210
0.0
220
0.0
230
1.0
 70
    24
 71
     3
 72
     8
 73
     4
 74
     0
 42
0.0000000001
 43
0.0000000001
 40
0.0
 40
0.0
 40
0.0
 40
0.0
 40
1.0
 40
1.0
 40
1.0
 40
1.0
 10
513.1026
 20
42.6502
 30
0.0
 10
513.1026
 20
42.6502
 30
0.0
 10
513.9692
 20
40.4687
 30
0.0
 10
513.9692
 20
40.4687
 30
0.0
  0
SPLINE
  5
1F7
330
1F
100
AcDbEntity
  8
DEFPOINTS
370
    25
100
AcDbSpline
210
0.0
220
0.0
230
1.0
 70
    24
 71
     3
 72
     8
 73
     4
 74
     0
 42
0.0000000001
 43
0.0000000001
 40
0.0
 40
0.0
 40
0.0
 40
0.0
 40
1.0
 40
1.0
 40
1.0
 40
1.0
 10
513.1026
 20
65.9441
 30
0.0
 10
513.1026
 20
65.9441
 30
0.0
 10
513.1026
 20
63.912
 30
0.0
 10
513.1026
 20
63.912
 30
0.0
  0
SPLINE
  5
1F8
330
1F
100
AcDbEntity
  8
DEFPOINTS
370
    25
100
AcDbSpline
210
0.0
220
0.0
230
1.0
 70
    24
 71
     3
 72
     8
 73
     4
 74
     0
 42
0.0000000001
 43
0.0000000001
 40
0.0
 40
0.0
 40
0.0
 40
0.0
 40
1.0
 40
1.0
 40
1.0
 40
1.0
 10
513.1026
 20
63.0379
 30
0.0
 10
513.1026
 20
63.0379
 30
0.0
 10
513.1026
 20
61.2897
 30
0.0
 10
513.1026
 20
61.2897
 30
0.0
  0
SPLINE
  5
1F9
330
1F
100
AcDbEntity
  8
DEFPOINTS
370
    25
100
AcDbSpline
210
0.0
220
0.0
230
1.0
 70
    24
 71
     3
 72
     8
 73
     4
 74
     0
 42
0.0000000001
 43
0.0000000001
 40
0.0
 40
0.0
 40
0.0
 40
0.0
 40
1.0
 40
1.0
 40
1.0
 40
1.0
 10
513.1026
 20
60.4157
 30
0.0
 10
513.1026
 20
60.4157
 30
0.0
 10
513.1026
 20
58.6675
 30
0.0
 10
513.1026
 20
58.6675
 30
0.0
  0
SPLINE
  5
1FA
330
1F
100
AcDbEntity
  8
DEFPOINTS
370
    25
100
AcDbSpline
210
0.0
220
0.0
230
1.0
 70
    24
 71
     3
 72
     8
 73
     4
 74
     0
 42
0.0000000001
 43
0.0000000001
 40
0.0
 40
0.0
 40
0.0
 40
0.0
 40
1.0
 40
1.0
 40
1.0
 40
1.0
 10
513.1026
 20
57.7934
 30
0.0
 10
513.1026
 20
57.7934
 30
0.0
 10
513.1026
 20
56.0453
 30
0.0
 10
513.1026
 20
56.0453
 30
0.0
  0
SPLINE
  5
1FB
330
1F
100
AcDbEntity
  8
DEFPOINTS
370
    25
100
AcDbSpline
210
0.0
220
0.0
230
1.0
 70
    24
 71
     3
 72
     8
 73
     4
 74
     0
 42
0.0000000001
 43
0.0000000001
 40
0.0
 40
0.0
 40
0.0
 40
0.0
 40
1.0
 40
1.0
 40
1.0
 40
1.0
 10
513.1026
 20
55.1712
 30
0.0
 10
513.1026
 20
55.1712
 30
0.0
 10
513.1026
 20
53.4305
 30
0.0
 10
513.1026
 20
53.4305
 30
0.0
  0
SPLINE
  5
1FC
330
1F
100
AcDbEntity
  8
DEFPOINTS
370
    25
100
AcDbSpline
210
0.0
220
0.0
230
1.0
 70
    24
 71
     3
 72
     8
 73
     4
 74
     0
 42
0.0000000001
 43
0.0000000001
 40
0.0
 40
0.0
 40
0.0
 40
0.0
 40
1.0
 40
1.0
 40
1.0
 40
1.0
 10
513.1026
 20
52.5564
 30
0.0
 10
513.1026
 20
52.5564
 30
0.0
 10
513.1026
 20
50.8083
 30
0.0
 10
513.1026
 20
50.8083
 30
0.0
  0
SPLINE
  5
1FD
330
1F
100
AcDbEntity
  8
DEFPOINTS
370
    25
100
AcDbSpline
210
0.0
220
0.0
230
1.0
 70
    24
 71
     3
 72
     8
 73
     4
 74
     0
 42
0.0000000001
 43
0.0000000001
 40
0.0
 40
0.0
 40
0.0
 40
0.0
 40
1.0
 40
1.0
 40
1.0
 40
1.0
 10
513.1026
 20
49.9342
 30
0.0
 10
513.1026
 20
49.9342
 30
0.0
 10
513.1026
 20
48.186
 30
0.0
 10
513.1026
 20
48.186
 30
0.0
  0
SPLINE
  5
1FE
330
1F
100
AcDbEntity
  8
DEFPOINTS
370
    25
100
AcDbSpline
210
0.0
220
0.0
230
1.0
 70
    24
 71
     3
 72
     8
 73
     4
 74
     0
 42
0.0000000001
 43
0.0000000001
 40
0.0
 40
0.0
 40
0.0
 40
0.0
 40
1.0
 40
1.0
 40
1.0
 40
1.0
 10
513.1026
 20
47.3119
 30
0.0
 10
513.1026
 20
47.3119
 30
0.0
 10
513.1026
 20
45.5638
 30
0.0
 10
513.1026
 20
45.5638
 30
0.0
  0
SPLINE
  5
1FF
330
1F
100
AcDbEntity
  8
DEFPOINTS
370
    25
100
AcDbSpline
210
0.0
220
0.0
230
1.0
 70
    24
 71
     3
 72
     8
 73
     4
 74
     0
 42
0.0000000001
 43
0.0000000001
 40
0.0
 40
0.0
 40
0.0
 40
0.0
 40
1.0
 40
1.0
 40
1.0
 40
1.0
 10
513.1026
 20
44.6897
 30
0.0
 10
513.1026
 20
44.6897
 30
0.0
 10
513.1026
 20
42.6502
 30
0.0
 10
513.1026
 20
42.6502
 30
0.0
  0
SPLINE
  5
200
330
1F
100
AcDbEntity
  8
DEFPOINTS
370
    25
100
AcDbSpline
210
0.0
220
0.0
230
1.0
 70
    24
 71
     3
 72
     8
 73
     4
 74
     0
 42
0.0000000001
 43
0.0000000001
 40
0.0
 40
0.0
 40
0.0
 40
0.0
 40
1.0
 40
1.0
 40
1.0
 40
1.0
 10
468.2107
 20
40.4014
 30
0.0
 10
468.2107
 20
40.4014
 30
0.0
 10
514.0439
 20
40.4014
 30
0.0
 10
514.0439
 20
40.4014
 30
0.0
  0
SPLINE
  5
201
330
1F
100
AcDbEntity
  8
DEFPOINTS
370
    25
100
AcDbSpline
210
0.0
220
0.0
230
1.0
 70
     8
 71
     3
 72
    12
 73
     8
 74
     0
 42
0.0000000001
 43
0.0000000001
 40
0.0
 40
0.0
 40
0.0
 40
0.0
 40
0.5
 40
0.5
 40
0.5
 40
0.5
 40
1.0
 40
1.0
 40
1.0
 40
1.0
 10
468.2779
 20
40.4687
 30
0.0
 10
468.2779
 20
40.4687
 30
0.0
 10
469.1445
 20
42.6576
 30
0.0
 10
469.1445
 20
42.6576
 30
0.0
 10
469.1445
 20
42.6576
 30
0.0
 10
469.1445
 20
42.6576
 30
0.0
 10
469.1445
 20
44.7046
 30
0.0
 10
469.1445
 20
44.7046
 30
0.0
  0
SPLINE
  5
202
330
1F
100
AcDbEntity
  8
DEFPOINTS
370
    25
100
AcDbSpline
210
0.0
220
0.0
230
1.0
 70
    24
 71
     3
 72
     8
 73
     4
 74
     0
 42
0.0000000001
 43
0.0000000001
 40
0.0
 40
0.0
 40
0.0
 40
0.0
 40
1.0
 40
1.0
 40
1.0
 40
1.0
 10
469.1445
 20
45.5712
 30
0.0
 10
469.1445
 20
45.5712
 30
0.0
 10
469.1445
 20
47.3194
 30
0.0
 10
469.1445
 20
47.3194
 30
0.0
  0
SPLINE
  5
203
330
1F
100
AcDbEntity
  8
DEFPOINTS
370
    25
100
AcDbSpline
210
0.0
220
0.0
230
1.0
 70
    24
 71
     3
 72
     8
 73
     4
 74
     0
 42
0.0000000001
 43
0.0000000001
 40
0.0
 40
0.0
 40
0.0
 40
0.0
 40
1.0
 40
1.0
 40
1.0
 40
1.0
 10
469.1445
 20
48.1935
 30
0.0
 10
469.1445
 20
48.1935
 30
0.0
 10
469.1445
 20
49.9417
 30
0.0
 10
469.1445
 20
49.9417
 30
0.0
  0
SPLINE
  5
204
330
1F
100
AcDbEntity
  8
DEFPOINTS
370
    25
100
AcDbSpline
210
0.0
220
0.0
230
1.0
 70
    24
 71
     3
 72
     8
 73
     4
 74
     0
 42
0.0000000001
 43
0.0000000001
 40
0.0
 40
0.0
 40
0.0
 40
0.0
 40
1.0
 40
1.0
 40
1.0
 40
1.0
 10
469.1445
 20
50.8157
 30
0.0
 10
469.1445
 20
50.8157
 30
0.0
 10
469.1445
 20
52.5639
 30
0.0
 10
469.1445
 20
52.5639
 30
0.0
  0
SPLINE
  5
205
330
1F
100
AcDbEntity
  8
DEFPOINTS
370
    25
100
AcDbSpline
210
0.0
220
0.0
230
1.0
 70
    24
 71
     3
 72
     8
 73
     4
 74
     0
 42
0.0000000001
 43
0.0000000001
 40
0.0
 40
0.0
 40
0.0
 40
0.0
 40
1.0
 40
1.0
 40
1.0
 40
1.0
 10
469.1445
 20
53.438
 30
0.0
 10
469.1445
 20
53.438
 30
0.0
 10
469.1445
 20
55.1861
 30
0.0
 10
469.1445
 20
55.1861
 30
0.0
  0
SPLINE
  5
206
330
1F
100
AcDbEntity
  8
DEFPOINTS
370
    25
100
AcDbSpline
210
0.0
220
0.0
230
1.0
 70
    24
 71
     3
 72
     8
 73
     4
 74
     0
 42
0.0000000001
 43
0.0000000001
 40
0.0
 40
0.0
 40
0.0
 40
0.0
 40
1.0
 40
1.0
 40
1.0
 40
1.0
 10
469.1445
 20
56.0527
 30
0.0
 10
469.1445
 20
56.0527
 30
0.0
 10
469.1445
 20
57.8009
 30
0.0
 10
469.1445
 20
57.8009
 30
0.0
  0
SPLINE
  5
207
330
1F
100
AcDbEntity
  8
DEFPOINTS
370
    25
100
AcDbSpline
210
0.0
220
0.0
230
1.0
 70
    24
 71
     3
 72
     8
 73
     4
 74
     0
 42
0.0000000001
 43
0.0000000001
 40
0.0
 40
0.0
 40
0.0
 40
0.0
 40
1.0
 40
1.0
 40
1.0
 40
1.0
 10
469.1445
 20
58.675
 30
0.0
 10
469.1445
 20
58.675
 30
0.0
 10
469.1445
 20
60.4232
 30
0.0
 10
469.1445
 20
60.4232
 30
0.0
  0
SPLINE
  5
208
330
1F
100
AcDbEntity
  8
DEFPOINTS
370
    25
100
AcDbSpline
210
0.0
220
0.0
230
1.0
 70
    24
 71
     3
 72
     8
 73
     4
 74
     0
 42
0.0000000001
 43
0.0000000001
 40
0.0
 40
0.0
 40
0.0
 40
0.0
 40
1.0
 40
1.0
 40
1.0
 40
1.0
 10
469.1445
 20
61.2972
 30
0.0
 10
469.1445
 20
61.2972
 30
0.0
 10
469.1445
 20
63.0454
 30
0.0
 10
469.1445
 20
63.0454
 30
0.0
  0
SPLINE
  5
209
330
1F
100
AcDbEntity
  8
DEFPOINTS
370
    25
100
AcDbSpline
210
0.0
220
0.0
230
1.0
 70
    24
 71
     3
 72
     8
 73
     4
 74
     0
 42
0.0000000001
 43
0.0000000001
 40
0.0
 40
0.0
 40
0.0
 40
0.0
 40
1.0
 40
1.0
 40
1.0
 40
1.0
 10
469.1445
 20
63.9195
 30
0.0
 10
469.1445
 20
63.9195
 30
0.0
 10
469.1445
 20
65.959
 30
0.0
 10
469.1445
 20
65.959
 30
0.0
  0
SPLINE
  5
20A
330
1F
100
AcDbEntity
  8
DEFPOINTS
370
    25
100
AcDbSpline
210
0.0
220
0.0
230
1.0
 70
    24
 71
     3
 72
     8
 73
     4
 74
     0
 42
0.0000000001
 43
0.0000000001
 40
0.0
 40
0.0
 40
0.0
 40
0.0
 40
1.0
 40
1.0
 40
1.0
 40
1.0
 10
468.2779
 20
40.4687
 30
0.0
 10
468.2779
 20
40.4687
 30
0.0
 10
469.1445
 20
42.6576
 30
0.0
 10
469.1445
 20
42.6576
 30
0.0
  0
SPLINE
  5
20B
330
1F
100
AcDbEntity
  8
DEFPOINTS
370
    25
100
AcDbSpline
210
0.0
220
0.0
230
1.0
 70
    24
 71
     3
 72
     8
 73
     4
 74
     0
 42
0.0000000001
 43
0.0000000001
 40
0.0
 40
0.0
 40
0.0
 40
0.0
 40
1.0
 40
1.0
 40
1.0
 40
1.0
 10
469.1445
 20
42.6502
 30
0.0
 10
469.1445
 20
42.6502
 30
0.0
 10
471.0347
 20
42.6502
 30
0.0
 10
471.0347
 20
42.6502
 30
0.0
  0
SPLINE
  5
20C
330
1F
100
AcDbEntity
  8
DEFPOINTS
370
    25
100
AcDbSpline
210
0.0
220
0.0
230
1.0
 70
    24
 71
     3
 72
     8
 73
     4
 74
     0
 42
0.0000000001
 43
0.0000000001
 40
0.0
 40
0.0
 40
0.0
 40
0.0
 40
1.0
 40
1.0
 40
1.0
 40
1.0
 10
471.9087
 20
42.6502
 30
0.0
 10
471.9087
 20
42.6502
 30
0.0
 10
473.6569
 20
42.6502
 30
0.0
 10
473.6569
 20
42.6502
 30
0.0
  0
SPLINE
  5
20D
330
1F
100
AcDbEntity
  8
DEFPOINTS
370
    25
100
AcDbSpline
210
0.0
220
0.0
230
1.0
 70
    24
 71
     3
 72
     8
 73
     4
 74
     0
 42
0.0000000001
 43
0.0000000001
 40
0.0
 40
0.0
 40
0.0
 40
0.0
 40
1.0
 40
1.0
 40
1.0
 40
1.0
 10
474.531
 20
42.6502
 30
0.0
 10
474.531
 20
42.6502
 30
0.0
 10
476.2791
 20
42.6502
 30
0.0
 10
476.2791
 20
42.6502
 30
0.0
  0
SPLINE
  5
20E
330
1F
100
AcDbEntity
  8
DEFPOINTS
370
    25
100
AcDbSpline
210
0.0
220
0.0
230
1.0
 70
    24
 71
     3
 72
     8
 73
     4
 74
     0
 42
0.0000000001
 43
0.0000000001
 40
0.0
 40
0.0
 40
0.0
 40
0.0
 40
1.0
 40
1.0
 40
1.0
 40
1.0
 10
477.1532
 20
42.6502
 30
0.0
 10
477.1532
 20
42.6502
 30
0.0
 10
478.8939
 20
42.6502
 30
0.0
 10
478.8939
 20
42.6502
 30
0.0
  0
SPLINE
  5
20F
330
1F
100
AcDbEntity
  8
DEFPOINTS
370
    25
100
AcDbSpline
210
0.0
220
0.0
230
1.0
 70
    24
 71
     3
 72
     8
 73
     4
 74
     0
 42
0.0000000001
 43
0.0000000001
 40
0.0
 40
0.0
 40
0.0
 40
0.0
 40
1.0
 40
1.0
 40
1.0
 40
1.0
 10
479.768
 20
42.6502
 30
0.0
 10
479.768
 20
42.6502
 30
0.0
 10
481.5162
 20
42.6502
 30
0.0
 10
481.5162
 20
42.6502
 30
0.0
  0
SPLINE
  5
210
330
1F
100
AcDbEntity
  8
DEFPOINTS
370
    25
100
AcDbSpline
210
0.0
220
0.0
230
1.0
 70
    24
 71
     3
 72
     8
 73
     4
 74
     0
 42
0.0000000001
 43
0.0000000001
 40
0.0
 40
0.0
 40
0.0
 40
0.0
 40
1.0
 40
1.0
 40
1.0
 40
1.0
 10
482.3902
 20
42.6502
 30
0.0
 10
482.3902
 20
42.6502
 30
0.0
 10
484.1384
 20
42.6502
 30
0.0
 10
484.1384
 20
42.6502
 30
0.0
  0
SPLINE
  5
211
330
1F
100
AcDbEntity
  8
DEFPOINTS
370
    25
100
AcDbSpline
210
0.0
220
0.0
230
1.0
 70
    24
 71
     3
 72
     8
 73
     4
 74
     0
 42
0.0000000001
 43
0.0000000001
 40
0.0
 40
0.0
 40
0.0
 40
0.0
 40
1.0
 40
1.0
 40
1.0
 40
1.0
 10
485.0125
 20
42.6502
 30
0.0
 10
485.0125
 20
42.6502
 30
0.0
 10
486.7606
 20
42.6502
 30
0.0
 10
486.7606
 20
42.6502
 30
0.0
  0
SPLINE
  5
212
330
1F
100
AcDbEntity
  8
DEFPOINTS
370
    25
100
AcDbSpline
210
0.0
220
0.0
230
1.0
 70
    24
 71
     3
 72
     8
 73
     4
 74
     0
 42
0.0000000001
 43
0.0000000001
 40
0.0
 40
0.0
 40
0.0
 40
0.0
 40
1.0
 40
1.0
 40
1.0
 40
1.0
 10
487.6273
 20
42.6502
 30
0.0
 10
487.6273
 20
42.6502
 30
0.0
 10
489.3754
 20
42.6502
 30
0.0
 10
489.3754
 20
42.6502
 30
0.0
  0
SPLINE
  5
213
330
1F
100
AcDbEntity
  8
DEFPOINTS
370
    25
100
AcDbSpline
210
0.0
220
0.0
230
1.0
 70
    24
 71
     3
 72
     8
 73
     4
 74
     0
 42
0.0000000001
 43
0.0000000001
 40
0.0
 40
0.0
 40
0.0
 40
0.0
 40
1.0
 40
1.0
 40
1.0
 40
1.0
 10
490.2495
 20
42.6502
 30
0.0
 10
490.2495
 20
42.6502
 30
0.0
 10
491.9977
 20
42.6502
 30
0.0
 10
491.9977
 20
42.6502
 30
0.0
  0
SPLINE
  5
214
330
1F
100
AcDbEntity
  8
DEFPOINTS
370
    25
100
AcDbSpline
210
0.0
220
0.0
230
1.0
 70
    24
 71
     3
 72
     8
 73
     4
 74
     0
 42
0.0000000001
 43
0.0000000001
 40
0.0
 40
0.0
 40
0.0
 40
0.0
 40
1.0
 40
1.0
 40
1.0
 40
1.0
 10
492.8718
 20
42.6502
 30
0.0
 10
492.8718
 20
42.6502
 30
0.0
 10
494.6199
 20
42.6502
 30
0.0
 10
494.6199
 20
42.6502
 30
0.0
  0
SPLINE
  5
215
330
1F
100
AcDbEntity
  8
DEFPOINTS
370
    25
100
AcDbSpline
210
0.0
220
0.0
230
1.0
 70
    24
 71
     3
 72
     8
 73
     4
 74
     0
 42
0.0000000001
 43
0.0000000001
 40
0.0
 40
0.0
 40
0.0
 40
0.0
 40
1.0
 40
1.0
 40
1.0
 40
1.0
 10
495.494
 20
42.6502
 30
0.0
 10
495.494
 20
42.6502
 30
0.0
 10
497.2347
 20
42.6502
 30
0.0
 10
497.2347
 20
42.6502
 30
0.0
  0
SPLINE
  5
216
330
1F
100
AcDbEntity
  8
DEFPOINTS
370
    25
100
AcDbSpline
210
0.0
220
0.0
230
1.0
 70
    24
 71
     3
 72
     8
 73
     4
 74
     0
 42
0.0000000001
 43
0.0000000001
 40
0.0
 40
0.0
 40
0.0
 40
0.0
 40
1.0
 40
1.0
 40
1.0
 40
1.0
 10
498.1088
 20
42.6502
 30
0.0
 10
498.1088
 20
42.6502
 30
0.0
 10
499.8569
 20
42.6502
 30
0.0
 10
499.8569
 20
42.6502
 30
0.0
  0
SPLINE
  5
217
330
1F
100
AcDbEntity
  8
DEFPOINTS
370
    25
100
AcDbSpline
210
0.0
220
0.0
230
1.0
 70
    24
 71
     3
 72
     8
 73
     4
 74
     0
 42
0.0000000001
 43
0.0000000001
 40
0.0
 40
0.0
 40
0.0
 40
0.0
 40
1.0
 40
1.0
 40
1.0
 40
1.0
 10
500.731
 20
42.6502
 30
0.0
 10
500.731
 20
42.6502
 30
0.0
 10
502.4792
 20
42.6502
 30
0.0
 10
502.4792
 20
42.6502
 30
0.0
  0
SPLINE
  5
218
330
1F
100
AcDbEntity
  8
DEFPOINTS
370
    25
100
AcDbSpline
210
0.0
220
0.0
230
1.0
 70
    24
 71
     3
 72
     8
 73
     4
 74
     0
 42
0.0000000001
 43
0.0000000001
 40
0.0
 40
0.0
 40
0.0
 40
0.0
 40
1.0
 40
1.0
 40
1.0
 40
1.0
 10
503.3533
 20
42.6502
 30
0.0
 10
503.3533
 20
42.6502
 30
0.0
 10
505.1014
 20
42.6502
 30
0.0
 10
505.1014
 20
42.6502
 30
0.0
  0
SPLINE
  5
219
330
1F
100
AcDbEntity
  8
DEFPOINTS
370
    25
100
AcDbSpline
210
0.0
220
0.0
230
1.0
 70
    24
 71
     3
 72
     8
 73
     4
 74
     0
 42
0.0000000001
 43
0.0000000001
 40
0.0
 40
0.0
 40
0.0
 40
0.0
 40
1.0
 40
1.0
 40
1.0
 40
1.0
 10
505.9755
 20
42.6502
 30
0.0
 10
505.9755
 20
42.6502
 30
0.0
 10
507.7162
 20
42.6502
 30
0.0
 10
507.7162
 20
42.6502
 30
0.0
  0
SPLINE
  5
21A
330
1F
100
AcDbEntity
  8
DEFPOINTS
370
    25
100
AcDbSpline
210
0.0
220
0.0
230
1.0
 70
    24
 71
     3
 72
     8
 73
     4
 74
     0
 42
0.0000000001
 43
0.0000000001
 40
0.0
 40
0.0
 40
0.0
 40
0.0
 40
1.0
 40
1.0
 40
1.0
 40
1.0
 10
508.5903
 20
42.6502
 30
0.0
 10
508.5903
 20
42.6502
 30
0.0
 10
510.3384
 20
42.6502
 30
0.0
 10
510.3384
 20
42.6502
 30
0.0
  0
SPLINE
  5
21B
330
1F
100
AcDbEntity
  8
DEFPOINTS
370
    25
100
AcDbSpline
210
0.0
220
0.0
230
1.0
 70
    24
 71
     3
 72
     8
 73
     4
 74
     0
 42
0.0000000001
 43
0.0000000001
 40
0.0
 40
0.0
 40
0.0
 40
0.0
 40
1.0
 40
1.0
 40
1.0
 40
1.0
 10
511.2125
 20
42.6502
 30
0.0
 10
511.2125
 20
42.6502
 30
0.0
 10
513.1026
 20
42.6502
 30
0.0
 10
513.1026
 20
42.6502
 30
0.0
  0
SPLINE
  5
21C
330
1F
100
AcDbEntity
  8
DEFPOINTS
370
    25
100
AcDbSpline
210
0.0
220
0.0
230
1.0
 70
     8
 71
     3
 72
     8
 73
     4
 74
     0
 42
0.0000000001
 43
0.0000000001
 40
0.0
 40
0.0
 40
0.0
 40
0.0
 40
1.0
 40
1.0
 40
1.0
 40
1.0
 10
493.4246
 20
43.6662
 30
0.0
 10
493.8294
 20
43.6433
 30
0.0
 10
494.1883
 20
44.0219
 30
0.0
 10
494.1791
 20
44.4207
 30
0.0
  0
SPLINE
  5
21D
330
1F
100
AcDbEntity
  8
DEFPOINTS
370
    25
100
AcDbSpline
210
0.0
220
0.0
230
1.0
 70
     8
 71
     3
 72
     8
 73
     4
 74
     0
 42
0.0000000001
 43
0.0000000001
 40
0.0
 40
0.0
 40
0.0
 40
0.0
 40
1.0
 40
1.0
 40
1.0
 40
1.0
 10
495.5687
 20
44.4207
 30
0.0
 10
495.5595
 20
44.019
 30
0.0
 10
495.9157
 20
43.6434
 30
0.0
 10
496.3233
 20
43.6662
 30
0.0
  0
SPLINE
  5
21E
330
1F
100
AcDbEntity
  8
DEFPOINTS
370
    25
100
AcDbSpline
210
0.0
220
0.0
230
1.0
 70
     8
 71
     3
 72
     8
 73
     4
 74
     0
 42
0.0000000001
 43
0.0000000001
 40
0.0
 40
0.0
 40
0.0
 40
0.0
 40
1.0
 40
1.0
 40
1.0
 40
1.0
 10
510.8315
 20
43.6662
 30
0.0
 10
511.2363
 20
43.6433
 30
0.0
 10
511.5953
 20
44.0219
 30
0.0
 10
511.5861
 20
44.4207
 30
0.0
  0
SPLINE
  5
21F
330
1F
100
AcDbEntity
  8
DEFPOINTS
370
    25
100
AcDbSpline
210
0.0
220
0.0
230
1.0
 70
     8
 71
     3
 72
     8
 73
     4
 74
     0
 42
0.0000000001
 43
0.0000000001
 40
0.0
 40
0.0
 40
0.0
 40
0.0
 40
1.0
 40
1.0
 40
1.0
 40
1.0
 10
511.5861
 20
63.4563
 30
0.0
 10
511.5907
 20
63.8635
 30
0.0
 10
511.2387
 20
64.2155
 30
0.0
 10
510.8315
 20
64.2108
 30
0.0
  0
SPLINE
  5
220
330
1F
100
AcDbEntity
  8
DEFPOINTS
370
    25
100
AcDbSpline
210
0.0
220
0.0
230
1.0
 70
     8
 71
     3
 72
     8
 73
     4
 74
     0
 42
0.0000000001
 43
0.0000000001
 40
0.0
 40
0.0
 40
0.0
 40
0.0
 40
1.0
 40
1.0
 40
1.0
 40
1.0
 10
496.3233
 20
64.2108
 30
0.0
 10
495.9025
 20
64.2068
 30
0.0
 10
495.5727
 20
63.877
 30
0.0
 10
495.5687
 20
63.4563
 30
0.0
  0
SPLINE
  5
221
330
1F
100
AcDbEntity
  8
DEFPOINTS
370
    25
100
AcDbSpline
210
0.0
220
0.0
230
1.0
 70
     8
 71
     3
 72
     8
 73
     4
 74
     0
 42
0.0000000001
 43
0.0000000001
 40
0.0
 40
0.0
 40
0.0
 40
0.0
 40
1.0
 40
1.0
 40
1.0
 40
1.0
 10
494.1791
 20
63.4563
 30
0.0
 10
494.1837
 20
63.8635
 30
0.0
 10
493.8318
 20
64.2155
 30
0.0
 10
493.4246
 20
64.2108
 30
0.0
  0
SPLINE
  5
222
330
1F
100
AcDbEntity
  8
DEFPOINTS
370
    25
100
AcDbSpline
210
0.0
220
0.0
230
1.0
 70
     8
 71
     3
 72
     8
 73
     4
 74
     0
 42
0.0000000001
 43
0.0000000001
 40
0.0
 40
0.0
 40
0.0
 40
0.0
 40
1.0
 40
1.0
 40
1.0
 40
1.0
 10
470.6686
 20
44.4207
 30
0.0
 10
470.6439
 20
44.0204
 30
0.0
 10
471.0227
 20
43.6415
 30
0.0
 10
471.4231
 20
43.6662
 30
0.0
  0
SPLINE
  5
223
330
1F
100
AcDbEntity
  8
DEFPOINTS
370
    25
100
AcDbSpline
210
0.0
220
0.0
230
1.0
 70
     8
 71
     3
 72
     8
 73
     4
 74
     0
 42
0.0000000001
 43
0.0000000001
 40
0.0
 40
0.0
 40
0.0
 40
0.0
 40
1.0
 40
1.0
 40
1.0
 40
1.0
 10
470.7284
 20
44.4805
 30
0.0
 10
470.7206
 20
44.0684
 30
0.0
 10
471.0678
 20
43.7145
 30
0.0
 10
471.4829
 20
43.726
 30
0.0
  0
SPLINE
  5
224
330
1F
100
AcDbEntity
  8
DEFPOINTS
370
    25
100
AcDbSpline
210
0.0
220
0.0
230
1.0
 70
     8
 71
     3
 72
     8
 73
     4
 74
     0
 42
0.0000000001
 43
0.0000000001
 40
0.0
 40
0.0
 40
0.0
 40
0.0
 40
1.0
 40
1.0
 40
1.0
 40
1.0
 10
493.3648
 20
43.726
 30
0.0
 10
493.7771
 20
43.7142
 30
0.0
 10
494.1216
 20
44.0737
 30
0.0
 10
494.1194
 20
44.4805
 30
0.0
  0
SPLINE
  5
225
330
1F
100
AcDbEntity
  8
DEFPOINTS
370
    25
100
AcDbSpline
210
0.0
220
0.0
230
1.0
 70
     8
 71
     3
 72
     8
 73
     4
 74
     0
 42
0.0000000001
 43
0.0000000001
 40
0.0
 40
0.0
 40
0.0
 40
0.0
 40
1.0
 40
1.0
 40
1.0
 40
1.0
 10
495.6285
 20
44.4805
 30
0.0
 10
495.6262
 20
44.0737
 30
0.0
 10
495.9708
 20
43.7142
 30
0.0
 10
496.383
 20
43.726
 30
0.0
  0
SPLINE
  5
226
330
1F
100
AcDbEntity
  8
DEFPOINTS
370
    25
100
AcDbSpline
210
0.0
220
0.0
230
1.0
 70
     8
 71
     3
 72
     8
 73
     4
 74
     0
 42
0.0000000001
 43
0.0000000001
 40
0.0
 40
0.0
 40
0.0
 40
0.0
 40
1.0
 40
1.0
 40
1.0
 40
1.0
 10
510.7717
 20
43.726
 30
0.0
 10
511.184
 20
43.7142
 30
0.0
 10
511.5285
 20
44.0737
 30
0.0
 10
511.5263
 20
44.4805
 30
0.0
  0
SPLINE
  5
227
330
1F
100
AcDbEntity
  8
DEFPOINTS
370
    25
100
AcDbSpline
210
0.0
220
0.0
230
1.0
 70
     8
 71
     3
 72
     8
 73
     4
 74
     0
 42
0.0000000001
 43
0.0000000001
 40
0.0
 40
0.0
 40
0.0
 40
0.0
 40
1.0
 40
1.0
 40
1.0
 40
1.0
 10
511.5263
 20
63.3965
 30
0.0
 10
511.5193
 20
63.812
 30
0.0
 10
511.1895
 20
64.1498
 30
0.0
 10
510.7717
 20
64.1511
 30
0.0
  0
SPLINE
  5
228
330
1F
100
AcDbEntity
  8
DEFPOINTS
370
    25
100
AcDbSpline
210
0.0
220
0.0
230
1.0
 70
     8
 71
     3
 72
     8
 73
     4
 74
     0
 42
0.0000000001
 43
0.0000000001
 40
0.0
 40
0.0
 40
0.0
 40
0.0
 40
1.0
 40
1.0
 40
1.0
 40
1.0
 10
496.383
 20
64.1511
 30
0.0
 10
495.9653
 20
64.1498
 30
0.0
 10
495.6354
 20
63.812
 30
0.0
 10
495.6285
 20
63.3965
 30
0.0
  0
SPLINE
  5
229
330
1F
100
AcDbEntity
  8
DEFPOINTS
370
    25
100
AcDbSpline
210
0.0
220
0.0
230
1.0
 70
     8
 71
     3
 72
     8
 73
     4
 74
     0
 42
0.0000000001
 43
0.0000000001
 40
0.0
 40
0.0
 40
0.0
 40
0.0
 40
1.0
 40
1.0
 40
1.0
 40
1.0
 10
494.1194
 20
63.3965
 30
0.0
 10
494.1124
 20
63.812
 30
0.0
 10
493.7825
 20
64.1498
 30
0.0
 10
493.3648
 20
64.1511
 30
0.0
  0
SPLINE
  5
22A
330
1F
100
AcDbEntity
  8
DEFPOINTS
370
    25
100
AcDbSpline
210
0.0
220
0.0
230
1.0
 70
     8
 71
     3
 72
    16
 73
    12
 74
     0
 42
0.0000000001
 43
0.0000000001
 40
0.0
 40
0.0
 40
0.0
 40
0.0
 40
0.3333333333333333
 40
0.3333333333333333
 40
0.3333333333333333
 40
0.3333333333333333
 40
0.6666666666666666
 40
0.6666666666666666
 40
0.6666666666666666
 40
0.6666666666666666
 40
1.0
 40
1.0
 40
1.0
 40
1.0
 10
514.0439
 20
40.4164
 30
0.0
 10
514.0439
 20
40.4164
 30
0.0
 10
514.0439
 20
65.959
 30
0.0
 10
514.0439
 20
65.959
 30
0.0
 10
514.0439
 20
65.959
 30
0.0
 10
514.0439
 20
65.959
 30
0.0
 10
468.2107
 20
65.959
 30
0.0
 10
468.2107
 20
65.959
 30
0.0
 10
468.2107
 20
65.959
 30
0.0
 10
468.2107
 20
65.959
 30
0.0
 10
468.2107
 20
40.4014
 30
0.0
 10
468.2107
 20
40.4014
 30
0.0
  0
SPLINE
  5
22B
330
1F
100
AcDbEntity
  8
DEFPOINTS
370
    25
100
AcDbSpline
210
0.0
220
0.0
230
1.0
 70
    24
 71
     3
 72
     8
 73
     4
 74
     0
 42
0.0000000001
 43
0.0000000001
 40
0.0
 40
0.0
 40
0.0
 40
0.0
 40
1.0
 40
1.0
 40
1.0
 40
1.0
 10
471.4829
 20
64.1511
 30
0.0
 10
471.4829
 20
64.1511
 30
0.0
 10
493.3648
 20
64.1511
 30
0.0
 10
493.3648
 20
64.1511
 30
0.0
  0
SPLINE
  5
22C
330
1F
100
AcDbEntity
  8
DEFPOINTS
370
    25
100
AcDbSpline
210
0.0
220
0.0
230
1.0
 70
    24
 71
     3
 72
     8
 73
     4
 74
     0
 42
0.0000000001
 43
0.0000000001
 40
0.0
 40
0.0
 40
0.0
 40
0.0
 40
1.0
 40
1.0
 40
1.0
 40
1.0
 10
510.7717
 20
43.726
 30
0.0
 10
510.7717
 20
43.726
 30
0.0
 10
496.383
 20
43.726
 30
0.0
 10
496.383
 20
43.726
 30
0.0
  0
SPLINE
  5
22D
330
1F
100
AcDbEntity
  8
DEFPOINTS
370
    25
100
AcDbSpline
210
0.0
220
0.0
230
1.0
 70
    24
 71
     3
 72
     8
 73
     4
 74
     0
 42
0.0000000001
 43
0.0000000001
 40
0.0
 40
0.0
 40
0.0
 40
0.0
 40
1.0
 40
1.0
 40
1.0
 40
1.0
 10
511.5263
 20
63.3965
 30
0.0
 10
511.5263
 20
63.3965
 30
0.0
 10
511.5263
 20
44.4805
 30
0.0
 10
511.5263
 20
44.4805
 30
0.0
  0
SPLINE
  5
22E
330
1F
100
AcDbEntity
  8
DEFPOINTS
370
    25
100
AcDbSpline
210
0.0
220
0.0
230
1.0
 70
    24
 71
     3
 72
     8
 73
     4
 74
     0
 42
0.0000000001
 43
0.0000000001
 40
0.0
 40
0.0
 40
0.0
 40
0.0
 40
1.0
 40
1.0
 40
1.0
 40
1.0
 10
470.6686
 20
44.4207
 30
0.0
 10
470.6686
 20
44.4207
 30
0.0
 10
470.6686
 20
63.4563
 30
0.0
 10
470.6686
 20
63.4563
 30
0.0
  0
SPLINE
  5
22F
330
1F
100
AcDbEntity
  8
DEFPOINTS
370
    25
100
AcDbSpline
210
0.0
220
0.0
230
1.0
 70
    24
 71
     3
 72
     8
 73
     4
 74
     0
 42
0.0000000001
 43
0.0000000001
 40
0.0
 40
0.0
 40
0.0
 40
0.0
 40
1.0
 40
1.0
 40
1.0
 40
1.0
 10
471.4231
 20
64.2108
 30
0.0
 10
471.4231
 20
64.2108
 30
0.0
 10
493.4246
 20
64.2108
 30
0.0
 10
493.4246
 20
64.2108
 30
0.0
  0
SPLINE
  5
230
330
1F
100
AcDbEntity
  8
DEFPOINTS
370
    25
100
AcDbSpline
210
0.0
220
0.0
230
1.0
 70
    24
 71
     3
 72
     8
 73
     4
 74
     0
 42
0.0000000001
 43
0.0000000001
 40
0.0
 40
0.0
 40
0.0
 40
0.0
 40
1.0
 40
1.0
 40
1.0
 40
1.0
 10
510.8315
 20
43.6662
 30
0.0
 10
510.8315
 20
43.6662
 30
0.0
 10
496.3233
 20
43.6662
 30
0.0
 10
496.3233
 20
43.6662
 30
0.0
  0
SPLINE
  5
231
330
1F
100
AcDbEntity
  8
DEFPOINTS
370
    25
100
AcDbSpline
210
0.0
220
0.0
230
1.0
 70
    24
 71
     3
 72
     8
 73
     4
 74
     0
 42
0.0000000001
 43
0.0000000001
 40
0.0
 40
0.0
 40
0.0
 40
0.0
 40
1.0
 40
1.0
 40
1.0
 40
1.0
 10
511.5861
 20
63.4563
 30
0.0
 10
511.5861
 20
63.4563
 30
0.0
 10
511.5861
 20
44.4207
 30
0.0
 10
511.5861
 20
44.4207
 30
0.0
  0
SPLINE
  5
232
330
1F
100
AcDbEntity
  8
DEFPOINTS
370
    25
100
AcDbSpline
210
0.0
220
0.0
230
1.0
 70
    24
 71
     3
 72
     8
 73
     4
 74
     0
 42
0.0000000001
 43
0.0000000001
 40
0.0
 40
0.0
 40
0.0
 40
0.0
 40
1.0
 40
1.0
 40
1.0
 40
1.0
 10
494.1194
 20
44.4805
 30
0.0
 10
494.1194
 20
44.4805
 30
0.0
 10
494.1194
 20
63.3965
 30
0.0
 10
494.1194
 20
63.3965
 30
0.0
  0
SPLINE
  5
233
330
1F
100
AcDbEntity
  8
DEFPOINTS
370
    25
100
AcDbSpline
210
0.0
220
0.0
230
1.0
 70
    24
 71
     3
 72
     8
 73
     4
 74
     0
 42
0.0000000001
 43
0.0000000001
 40
0.0
 40
0.0
 40
0.0
 40
0.0
 40
1.0
 40
1.0
 40
1.0
 40
1.0
 10
495.6285
 20
44.4805
 30
0.0
 10
495.6285
 20
44.4805
 30
0.0
 10
495.6285
 20
63.3965
 30
0.0
 10
495.6285
 20
63.3965
 30
0.0
  0
SPLINE
  5
234
330
1F
100
AcDbEntity
  8
DEFPOINTS
370
    25
100
AcDbSpline
210
0.0
220
0.0
230
1.0
 70
    24
 71
     3
 72
     8
 73
     4
 74
     0
 42
0.0000000001
 43
0.0000000001
 40
0.0
 40
0.0
 40
0.0
 40
0.0
 40
1.0
 40
1.0
 40
1.0
 40
1.0
 10
494.1791
 20
44.4207
 30
0.0
 10
494.1791
 20
44.4207
 30
0.0
 10
494.1791
 20
63.4563
 30
0.0
 10
494.1791
 20
63.4563
 30
0.0
  0
SPLINE
  5
235
330
1F
100
AcDbEntity
  8
DEFPOINTS
370
    25
100
AcDbSpline
210
0.0
220
0.0
230
1.0
 70
    24
 71
     3
 72
     8
 73
     4
 74
     0
 42
0.0000000001
 43
0.0000000001
 40
0.0
 40
0.0
 40
0.0
 40
0.0
 40
1.0
 40
1.0
 40
1.0
 40
1.0
 10
495.5687
 20
44.4207
 30
0.0
 10
495.5687
 20
44.4207
 30
0.0
 10
495.5687
 20
63.4563
 30
0.0
 10
495.5687
 20
63.4563
 30
0.0
  0
SPLINE
  5
236
330
1F
100
AcDbEntity
  8
DEFPOINTS
370
    25
100
AcDbSpline
210
0.0
220
0.0
230
1.0
 70
    24
 71
     3
 72
     8
 73
     4
 74
     0
 42
0.0000000001
 43
0.0000000001
 40
0.0
 40
0.0
 40
0.0
 40
0.0
 40
1.0
 40
1.0
 40
1.0
 40
1.0
 10
470.7284
 20
44.4805
 30
0.0
 10
470.7284
 20
44.4805
 30
0.0
 10
470.7284
 20
63.3965
 30
0.0
 10
470.7284
 20
63.3965
 30
0.0
  0
SPLINE
  5
237
330
1F
100
AcDbEntity
  8
DEFPOINTS
370
    25
100
AcDbSpline
210
0.0
220
0.0
230
1.0
 70
    24
 71
     3
 72
     8
 73
     4
 74
     0
 42
0.0000000001
 43
0.0000000001
 40
0.0
 40
0.0
 40
0.0
 40
0.0
 40
1.0
 40
1.0
 40
1.0
 40
1.0
 10
496.383
 20
64.1511
 30
0.0
 10
496.383
 20
64.1511
 30
0.0
 10
510.7717
 20
64.1511
 30
0.0
 10
510.7717
 20
64.1511
 30
0.0
  0
SPLINE
  5
238
330
1F
100
AcDbEntity
  8
DEFPOINTS
370
    25
100
AcDbSpline
210
0.0
220
0.0
230
1.0
 70
    24
 71
     3
 72
     8
 73
     4
 74
     0
 42
0.0000000001
 43
0.0000000001
 40
0.0
 40
0.0
 40
0.0
 40
0.0
 40
1.0
 40
1.0
 40
1.0
 40
1.0
 10
496.3233
 20
64.2108
 30
0.0
 10
496.3233
 20
64.2108
 30
0.0
 10
510.8315
 20
64.2108
 30
0.0
 10
510.8315
 20
64.2108
 30
0.0
  0
SPLINE
  5
239
330
1F
100
AcDbEntity
  8
DEFPOINTS
370
    25
100
AcDbSpline
210
0.0
220
0.0
230
1.0
 70
    11
 71
     3
 72
    20
 73
    16
 74
     0
 42
0.0000000001
 43
0.0000000001
 40
0.0
 40
0.0
 40
0.0
 40
0.0
 40
0.25
 40
0.25
 40
0.25
 40
0.25
 40
0.5
 40
0.5
 40
0.5
 40
0.5
 40
0.75
 40
0.75
 40
0.75
 40
0.75
 40
1.0
 40
1.0
 40
1.0
 40
1.0
 10
485.4383
 20
58.0997
 30
0.0
 10
485.4528
 20
59.7618
 30
0.0
 10
484.082
 20
61.1324
 30
0.0
 10
482.4201
 20
61.1179
 30
0.0
 10
482.4201
 20
61.1179
 30
0.0
 10
480.7534
 20
61.1258
 30
0.0
 10
479.4042
 20
59.7627
 30
0.0
 10
479.4019
 20
58.0997
 30
0.0
 10
479.4019
 20
58.0997
 30
0.0
 10
479.4105
 20
56.4325
 30
0.0
 10
480.7528
 20
55.0901
 30
0.0
 10
482.4201
 20
55.0815
 30
0.0
 10
482.4201
 20
55.0815
 30
0.0
 10
484.083
 20
55.0839
 30
0.0
 10
485.4462
 20
56.4331
 30
0.0
 10
485.4383
 20
58.0997
 30
0.0
  0
SPLINE
  5
23A
330
1F
100
AcDbEntity
  8
DEFPOINTS
370
    25
100
AcDbSpline
210
0.0
220
0.0
230
1.0
 70
    11
 71
     3
 72
    12
 73
     8
 74
     0
 42
0.0000000001
 43
0.0000000001
 40
0.0
 40
0.0
 40
0.0
 40
0.0
 40
0.5
 40
0.5
 40
0.5
 40
0.5
 40
1.0
 40
1.0
 40
1.0
 40
1.0
 10
484.6838
 20
58.0997
 30
0.0
 10
484.5631
 20
61.1052
 30
0.0
 10
480.2832
 20
61.105
 30
0.0
 10
480.1565
 20
58.0997
 30
0.0
 10
480.1565
 20
58.0997
 30
0.0
 10
480.2963
 20
55.096
 30
0.0
 10
484.5497
 20
55.0954
 30
0.0
 10
484.6838
 20
58.0997
 30
0.0
  0
SPLINE
  5
23B
330
1F
100
AcDbEntity
  8
DEFPOINTS
370
    25
100
AcDbSpline
210
0.0
220
0.0
230
1.0
 70
    11
 71
     3
 72
    20
 73
    16
 74
     0
 42
0.0000000001
 43
0.0000000001
 40
0.0
 40
0.0
 40
0.0
 40
0.0
 40
0.25
 40
0.25
 40
0.25
 40
0.25
 40
0.5
 40
0.5
 40
0.5
 40
0.5
 40
0.75
 40
0.75
 40
0.75
 40
0.75
 40
1.0
 40
1.0
 40
1.0
 40
1.0
 10
506.5956
 20
58.0997
 30
0.0
 10
506.604
 20
59.7541
 30
0.0
 10
505.2349
 20
61.134
 30
0.0
 10
503.5774
 20
61.1179
 30
0.0
 10
503.5774
 20
61.1179
 30
0.0
 10
501.9123
 20
61.1328
 30
0.0
 10
500.5559
 20
59.7584
 30
0.0
 10
500.5592
 20
58.0997
 30
0.0
 10
500.5592
 20
58.0997
 30
0.0
 10
500.5679
 20
56.4309
 30
0.0
 10
501.9024
 20
55.0893
 30
0.0
 10
503.5774
 20
55.0815
 30
0.0
 10
503.5774
 20
55.0815
 30
0.0
 10
505.2441
 20
55.0888
 30
0.0
 10
506.591
 20
56.4321
 30
0.0
 10
506.5956
 20
58.0997
 30
0.0
  0
SPLINE
  5
23C
330
1F
100
AcDbEntity
  8
DEFPOINTS
370
    25
100
AcDbSpline
210
0.0
220
0.0
230
1.0
 70
    11
 71
     3
 72
    12
 73
     8
 74
     0
 42
0.0000000001
 43
0.0000000001
 40
0.0
 40
0.0
 40
0.0
 40
0.0
 40
0.5
 40
0.5
 40
0.5
 40
0.5
 40
1.0
 40
1.0
 40
1.0
 40
1.0
 10
505.841
 20
58.0997
 30
0.0
 10
505.6997
 20
61.1082
 30
0.0
 10
501.4554
 20
61.1109
 30
0.0
 10
501.3137
 20
58.0997
 30
0.0
 10
501.3137
 20
58.0997
 30
0.0
 10
501.4639
 20
55.0909
 30
0.0
 10
505.6916
 20
55.0942
 30
0.0
 10
505.841
 20
58.0997
 30
0.0
  0
SPLINE
  5
23D
330
1F
100
AcDbEntity
  8
DEFPOINTS
370
    25
100
AcDbSpline
210
0.0
220
0.0
230
1.0
 70
    24
 71
     3
 72
     8
 73
     4
 74
     0
 42
0.0000000001
 43
0.0000000001
 40
0.0
 40
0.0
 40
0.0
 40
0.0
 40
1.0
 40
1.0
 40
1.0
 40
1.0
 10
493.3648
 20
43.726
 30
0.0
 10
493.3648
 20
43.726
 30
0.0
 10
471.4829
 20
43.726
 30
0.0
 10
471.4829
 20
43.726
 30
0.0
  0
SPLINE
  5
23E
330
1F
100
AcDbEntity
  8
DEFPOINTS
370
    25
100
AcDbSpline
210
0.0
220
0.0
230
1.0
 70
    24
 71
     3
 72
     8
 73
     4
 74
     0
 42
0.0000000001
 43
0.0000000001
 40
0.0
 40
0.0
 40
0.0
 40
0.0
 40
1.0
 40
1.0
 40
1.0
 40
1.0
 10
493.4246
 20
43.6662
 30
0.0
 10
493.4246
 20
43.6662
 30
0.0
 10
471.4231
 20
43.6662
 30
0.0
 10
471.4231
 20
43.6662
 30
0.0
  0
SPLINE
  5
23F
330
1F
100
AcDbEntity
  8
DEFPOINTS
370
    25
100
AcDbSpline
210
0.0
220
0.0
230
1.0
 70
    24
 71
     3
 72
     8
 73
     4
 74
     0
 42
0.0000000001
 43
0.0000000001
 40
0.0
 40
0.0
 40
0.0
 40
0.0
 40
1.0
 40
1.0
 40
1.0
 40
1.0
 10
484.1011
 20
55.5896
 30
0.0
 10
484.1011
 20
55.5896
 30
0.0
 10
493.3648
 20
44.4805
 30
0.0
 10
493.3648
 20
44.4805
 30
0.0
  0
SPLINE
  5
240
330
1F
100
AcDbEntity
  8
DEFPOINTS
370
    25
100
AcDbSpline
210
0.0
220
0.0
230
1.0
 70
    24
 71
     3
 72
     8
 73
     4
 74
     0
 42
0.0000000001
 43
0.0000000001
 40
0.0
 40
0.0
 40
0.0
 40
0.0
 40
1.0
 40
1.0
 40
1.0
 40
1.0
 10
485.0947
 20
59.5117
 30
0.0
 10
485.0947
 20
59.5117
 30
0.0
 10
493.4246
 20
63.4563
 30
0.0
 10
493.4246
 20
63.4563
 30
0.0
  0
SPLINE
  5
241
330
1F
100
AcDbEntity
  8
DEFPOINTS
370
    25
100
AcDbSpline
210
0.0
220
0.0
230
1.0
 70
    24
 71
     3
 72
     8
 73
     4
 74
     0
 42
0.0000000001
 43
0.0000000001
 40
0.0
 40
0.0
 40
0.0
 40
0.0
 40
1.0
 40
1.0
 40
1.0
 40
1.0
 10
471.4829
 20
63.3965
 30
0.0
 10
471.4829
 20
63.3965
 30
0.0
 10
479.5588
 20
59.2652
 30
0.0
 10
479.5588
 20
59.2652
 30
0.0
  0
SPLINE
  5
242
330
1F
100
AcDbEntity
  8
DEFPOINTS
370
    25
100
AcDbSpline
210
0.0
220
0.0
230
1.0
 70
    24
 71
     3
 72
     8
 73
     4
 74
     0
 42
0.0000000001
 43
0.0000000001
 40
0.0
 40
0.0
 40
0.0
 40
0.0
 40
1.0
 40
1.0
 40
1.0
 40
1.0
 10
480.2685
 20
55.9108
 30
0.0
 10
480.2685
 20
55.9108
 30
0.0
 10
471.4829
 20
44.4805
 30
0.0
 10
471.4829
 20
44.4805
 30
0.0
  0
SPLINE
  5
243
330
1F
100
AcDbEntity
  8
DEFPOINTS
370
    25
100
AcDbSpline
210
0.0
220
0.0
230
1.0
 70
    24
 71
     3
 72
     8
 73
     4
 74
     0
 42
0.0000000001
 43
0.0000000001
 40
0.0
 40
0.0
 40
0.0
 40
0.0
 40
1.0
 40
1.0
 40
1.0
 40
1.0
 10
505.3031
 20
55.6269
 30
0.0
 10
505.3031
 20
55.6269
 30
0.0
 10
510.7717
 20
44.4805
 30
0.0
 10
510.7717
 20
44.4805
 30
0.0
  0
SPLINE
  5
244
330
1F
100
AcDbEntity
  8
DEFPOINTS
370
    25
100
AcDbSpline
210
0.0
220
0.0
230
1.0
 70
    24
 71
     3
 72
     8
 73
     4
 74
     0
 42
0.0000000001
 43
0.0000000001
 40
0.0
 40
0.0
 40
0.0
 40
0.0
 40
1.0
 40
1.0
 40
1.0
 40
1.0
 10
496.383
 20
44.4805
 30
0.0
 10
496.383
 20
44.4805
 30
0.0
 10
502.397
 20
55.3206
 30
0.0
 10
502.397
 20
55.3206
 30
0.0
  0
SPLINE
  5
245
330
1F
100
AcDbEntity
  8
DEFPOINTS
370
    25
100
AcDbSpline
210
0.0
220
0.0
230
1.0
 70
    24
 71
     3
 72
     8
 73
     4
 74
     0
 42
0.0000000001
 43
0.0000000001
 40
0.0
 40
0.0
 40
0.0
 40
0.0
 40
1.0
 40
1.0
 40
1.0
 40
1.0
 10
506.1772
 20
59.6312
 30
0.0
 10
506.1772
 20
59.6312
 30
0.0
 10
510.7717
 20
63.3965
 30
0.0
 10
510.7717
 20
63.3965
 30
0.0
  0
SPLINE
  5
246
330
1F
100
AcDbEntity
  8
DEFPOINTS
370
    25
100
AcDbSpline
210
0.0
220
0.0
230
1.0
 70
    24
 71
     3
 72
     8
 73
     4
 74
     0
 42
0.0000000001
 43
0.0000000001
 40
0.0
 40
0.0
 40
0.0
 40
0.0
 40
1.0
 40
1.0
 40
1.0
 40
1.0
 10
501.1793
 20
59.9376
 30
0.0
 10
501.1793
 20
59.9376
 30
0.0
 10
496.383
 20
63.3965
 30
0.0
 10
496.383
 20
63.3965
 30
0.0
  0
SPLINE
  5
247
330
1F
100
AcDbEntity
  8
DEFPOINTS
370
    25
100
AcDbSpline
210
0.0
220
0.0
230
1.0
 70
     8
 71
     3
 72
     8
 73
     4
 74
     0
 42
0.0000000001
 43
0.0000000001
 40
0.0
 40
0.0
 40
0.0
 40
0.0
 40
1.0
 40
1.0
 40
1.0
 40
1.0
 10
471.4829
 20
64.1511
 30
0.0
 10
471.0587
 20
64.147
 30
0.0
 10
470.7321
 20
63.8201
 30
0.0
 10
470.7284
 20
63.3965
 30
0.0
  0
SPLINE
  5
248
330
1F
100
AcDbEntity
  8
DEFPOINTS
370
    25
100
AcDbSpline
210
0.0
220
0.0
230
1.0
 70
     8
 71
     3
 72
     8
 73
     4
 74
     0
 42
0.0000000001
 43
0.0000000001
 40
0.0
 40
0.0
 40
0.0
 40
0.0
 40
1.0
 40
1.0
 40
1.0
 40
1.0
 10
471.4231
 20
64.2108
 30
0.0
 10
471.0242
 20
64.2202
 30
0.0
 10
470.6456
 20
63.8612
 30
0.0
 10
470.6686
 20
63.4563
 30
0.0
  0
SPLINE
  5
249
330
1F
100
AcDbEntity
  8
DEFPOINTS
 62
     5
370
    25
100
AcDbSpline
210
0.0
220
0.0
230
1.0
 70
    24
 71
     3
 72
     8
 73
     4
 74
     0
 42
0.0000000001
 43
0.0000000001
 40
0.0
 40
0.0
 40
0.0
 40
0.0
 40
1.0
 40
1.0
 40
1.0
 40
1.0
 10
470.7284
 20
37.3608
 30
0.0
 10
470.7284
 20
37.3608
 30
0.0
 10
470.7284
 20
37.331
 30
0.0
 10
470.7284
 20
37.331
 30
0.0
  0
SPLINE
  5
24A
330
1F
100
AcDbEntity
  8
DEFPOINTS
 62
     5
370
    25
100
AcDbSpline
210
0.0
220
0.0
230
1.0
 70
    24
 71
     3
 72
     8
 73
     4
 74
     0
 42
0.0000000001
 43
0.0000000001
 40
0.0
 40
0.0
 40
0.0
 40
0.0
 40
1.0
 40
1.0
 40
1.0
 40
1.0
 10
494.1194
 20
37.3608
 30
0.0
 10
494.1194
 20
37.3608
 30
0.0
 10
494.1194
 20
37.331
 30
0.0
 10
494.1194
 20
37.331
 30
0.0
  0
SPLINE
  5
24B
330
1F
100
AcDbEntity
  8
DEFPOINTS
 62
     5
370
    25
100
AcDbSpline
210
0.0
220
0.0
230
1.0
 70
    24
 71
     3
 72
     8
 73
     4
 74
     0
 42
0.0000000001
 43
0.0000000001
 40
0.0
 40
0.0
 40
0.0
 40
0.0
 40
1.0
 40
1.0
 40
1.0
 40
1.0
 10
472.1254
 20
36.4868
 30
0.0
 10
472.1254
 20
36.4868
 30
0.0
 10
492.7223
 20
36.4868
 30
0.0
 10
492.7223
 20
36.4868
 30
0.0
  0
SPLINE
  5
24C
330
1F
100
AcDbEntity
  8
DEFPOINTS
 62
     5
100
AcDbSpline
210
0.0
220
0.0
230
1.0
 70
    11
 71
     3
 72
    16
 73
    12
 74
     0
 42
0.0000000001
 43
0.0000000001
 40
0.0
 40
0.0
 40
0.0
 40
0.0
 40
0.3333333333333333
 40
0.3333333333333333
 40
0.3333333333333333
 40
0.3333333333333333
 40
0.6666666666666666
 40
0.6666666666666666
 40
0.6666666666666666
 40
0.6666666666666666
 40
1.0
 40
1.0
 40
1.0
 40
1.0
 10
472.1254
 20
36.7258
 30
0.0
 10
472.1254
 20
36.7258
 30
0.0
 10
472.1254
 20
36.2552
 30
0.0
 10
472.1254
 20
36.2552
 30
0.0
 10
472.1254
 20
36.2552
 30
0.0
 10
472.1254
 20
36.2552
 30
0.0
 10
470.7284
 20
36.4868
 30
0.0
 10
470.7284
 20
36.4868
 30
0.0
 10
470.7284
 20
36.4868
 30
0.0
 10
470.7284
 20
36.4868
 30
0.0
 10
472.1254
 20
36.7258
 30
0.0
 10
472.1254
 20
36.7258
 30
0.0
  0
SPLINE
  5
24D
330
1F
100
AcDbEntity
  8
DEFPOINTS
 62
     5
100
AcDbSpline
210
0.0
220
0.0
230
1.0
 70
    11
 71
     3
 72
    16
 73
    12
 74
     0
 42
0.0000000001
 43
0.0000000001
 40
0.0
 40
0.0
 40
0.0
 40
0.0
 40
0.3333333333333333
 40
0.3333333333333333
 40
0.3333333333333333
 40
0.3333333333333333
 40
0.6666666666666666
 40
0.6666666666666666
 40
0.6666666666666666
 40
0.6666666666666666
 40
1.0
 40
1.0
 40
1.0
 40
1.0
 10
492.7223
 20
36.7258
 30
0.0
 10
492.7223
 20
36.7258
 30
0.0
 10
492.7223
 20
36.2552
 30
0.0
 10
492.7223
 20
36.2552
 30
0.0
 10
492.7223
 20
36.2552
 30
0.0
 10
492.7223
 20
36.2552
 30
0.0
 10
494.1194
 20
36.4868
 30
0.0
 10
494.1194
 20
36.4868
 30
0.0
 10
494.1194
 20
36.4868
 30
0.0
 10
494.1194
 20
36.4868
 30
0.0
 10
492.7223
 20
36.7258
 30
0.0
 10
492.7223
 20
36.7258
 30
0.0
  0
SPLINE
  5
24E
330
1F
100
AcDbEntity
  8
DEFPOINTS
 62
     5
370
    25
100
AcDbSpline
210
0.0
220
0.0
230
1.0
 70
     8
 71
     3
 72
    12
 73
     8
 74
     0
 42
0.0000000001
 43
0.0000000001
 40
0.0
 40
0.0
 40
0.0
 40
0.0
 40
0.5
 40
0.5
 40
0.5
 40
0.5
 40
1.0
 40
1.0
 40
1.0
 40
1.0
 10
480.2386
 20
38.9372
 30
0.0
 10
480.2386
 20
38.9372
 30
0.0
 10
480.4703
 20
39.1688
 30
0.0
 10
480.4703
 20
39.1688
 30
0.0
 10
480.4703
 20
39.1688
 30
0.0
 10
480.4703
 20
39.1688
 30
0.0
 10
480.4703
 20
37.7718
 30
0.0
 10
480.4703
 20
37.7718
 30
0.0
  0
SPLINE
  5
24F
330
1F
100
AcDbEntity
  8
DEFPOINTS
 62
     5
370
    25
100
AcDbSpline
210
0.0
220
0.0
230
1.0
 70
    24
 71
     3
 72
     8
 73
     4
 74
     0
 42
0.0000000001
 43
0.0000000001
 40
0.0
 40
0.0
 40
0.0
 40
0.0
 40
1.0
 40
1.0
 40
1.0
 40
1.0
 10
480.2386
 20
37.7718
 30
0.0
 10
480.2386
 20
37.7718
 30
0.0
 10
480.7019
 20
37.7718
 30
0.0
 10
480.7019
 20
37.7718
 30
0.0
  0
SPLINE
  5
250
330
1F
100
AcDbEntity
  8
DEFPOINTS
 62
     5
370
    25
100
AcDbSpline
210
0.0
220
0.0
230
1.0
 70
     8
 71
     3
 72
    48
 73
    44
 74
     0
 42
0.0000000001
 43
0.0000000001
 40
0.0
 40
0.0
 40
0.0
 40
0.0
 40
0.0909090909090909
 40
0.0909090909090909
 40
0.0909090909090909
 40
0.0909090909090909
 40
0.1818181818181818
 40
0.1818181818181818
 40
0.1818181818181818
 40
0.1818181818181818
 40
0.2727272727272727
 40
0.2727272727272727
 40
0.2727272727272727
 40
0.2727272727272727
 40
0.3636363636363636
 40
0.3636363636363636
 40
0.3636363636363636
 40
0.3636363636363636
 40
0.4545454545454546
 40
0.4545454545454546
 40
0.4545454545454546
 40
0.4545454545454546
 40
0.5454545454545455
 40
0.5454545454545455
 40
0.5454545454545455
 40
0.5454545454545455
 40
0.6363636363636365
 40
0.6363636363636365
 40
0.6363636363636365
 40
0.6363636363636365
 40
0.7272727272727274
 40
0.7272727272727274
 40
0.7272727272727274
 40
0.7272727272727274
 40
0.8181818181818183
 40
0.8181818181818183
 40
0.8181818181818183
 40
0.8181818181818183
 40
0.9090909090909093
 40
0.9090909090909093
 40
0.9090909090909093
 40
0.9090909090909093
 40
1.0
 40
1.0
 40
1.0
 40
1.0
 10
481.4041
 20
37.7718
 30
0.0
 10
481.4041
 20
37.7718
 30
0.0
 10
481.1725
 20
38.0033
 30
0.0
 10
481.1725
 20
38.0033
 30
0.0
 10
481.1725
 20
38.0033
 30
0.0
 10
481.1725
 20
38.0033
 30
0.0
 10
481.1725
 20
38.2349
 30
0.0
 10
481.1725
 20
38.2349
 30
0.0
 10
481.1725
 20
38.2349
 30
0.0
 10
481.1725
 20
38.2349
 30
0.0
 10
481.4041
 20
38.4665
 30
0.0
 10
481.4041
 20
38.4665
 30
0.0
 10
481.4041
 20
38.4665
 30
0.0
 10
481.4041
 20
38.4665
 30
0.0
 10
481.8673
 20
38.4665
 30
0.0
 10
481.8673
 20
38.4665
 30
0.0
 10
481.8673
 20
38.4665
 30
0.0
 10
481.8673
 20
38.4665
 30
0.0
 10
482.0989
 20
38.7056
 30
0.0
 10
482.0989
 20
38.7056
 30
0.0
 10
482.0989
 20
38.7056
 30
0.0
 10
482.0989
 20
38.7056
 30
0.0
 10
482.0989
 20
38.9372
 30
0.0
 10
482.0989
 20
38.9372
 30
0.0
 10
482.0989
 20
38.9372
 30
0.0
 10
482.0989
 20
38.9372
 30
0.0
 10
481.8673
 20
39.1688
 30
0.0
 10
481.8673
 20
39.1688
 30
0.0
 10
481.8673
 20
39.1688
 30
0.0
 10
481.8673
 20
39.1688
 30
0.0
 10
481.4041
 20
39.1688
 30
0.0
 10
481.4041
 20
39.1688
 30
0.0
 10
481.4041
 20
39.1688
 30
0.0
 10
481.4041
 20
39.1688
 30
0.0
 10
481.1725
 20
38.9372
 30
0.0
 10
481.1725
 20
38.9372
 30
0.0
 10
481.1725
 20
38.9372
 30
0.0
 10
481.1725
 20
38.9372
 30
0.0
 10
481.1725
 20
38.7056
 30
0.0
 10
481.1725
 20
38.7056
 30
0.0
 10
481.1725
 20
38.7056
 30
0.0
 10
481.1725
 20
38.7056
 30
0.0
 10
481.4041
 20
38.4665
 30
0.0
 10
481.4041
 20
38.4665
 30
0.0
  0
SPLINE
  5
251
330
1F
100
AcDbEntity
  8
DEFPOINTS
 62
     5
370
    25
100
AcDbSpline
210
0.0
220
0.0
230
1.0
 70
     8
 71
     3
 72
    20
 73
    16
 74
     0
 42
0.0000000001
 43
0.0000000001
 40
0.0
 40
0.0
 40
0.0
 40
0.0
 40
0.25
 40
0.25
 40
0.25
 40
0.25
 40
0.5
 40
0.5
 40
0.5
 40
0.5
 40
0.75
 40
0.75
 40
0.75
 40
0.75
 40
1.0
 40
1.0
 40
1.0
 40
1.0
 10
481.8673
 20
38.4665
 30
0.0
 10
481.8673
 20
38.4665
 30
0.0
 10
482.0989
 20
38.2349
 30
0.0
 10
482.0989
 20
38.2349
 30
0.0
 10
482.0989
 20
38.2349
 30
0.0
 10
482.0989
 20
38.2349
 30
0.0
 10
482.0989
 20
38.0033
 30
0.0
 10
482.0989
 20
38.0033
 30
0.0
 10
482.0989
 20
38.0033
 30
0.0
 10
482.0989
 20
38.0033
 30
0.0
 10
481.8673
 20
37.7718
 30
0.0
 10
481.8673
 20
37.7718
 30
0.0
 10
481.8673
 20
37.7718
 30
0.0
 10
481.8673
 20
37.7718
 30
0.0
 10
481.4041
 20
37.7718
 30
0.0
 10
481.4041
 20
37.7718
 30
0.0
  0
SPLINE
  5
252
330
1F
100
AcDbEntity
  8
DEFPOINTS
 62
     5
370
    25
100
AcDbSpline
210
0.0
220
0.0
230
1.0
 70
     8
 71
     3
 72
    36
 73
    32
 74
     0
 42
0.0000000001
 43
0.0000000001
 40
0.0
 40
0.0
 40
0.0
 40
0.0
 40
0.125
 40
0.125
 40
0.125
 40
0.125
 40
0.25
 40
0.25
 40
0.25
 40
0.25
 40
0.375
 40
0.375
 40
0.375
 40
0.375
 40
0.5
 40
0.5
 40
0.5
 40
0.5
 40
0.625
 40
0.625
 40
0.625
 40
0.625
 40
0.75
 40
0.75
 40
0.75
 40
0.75
 40
0.875
 40
0.875
 40
0.875
 40
0.875
 40
1.0
 40
1.0
 40
1.0
 40
1.0
 10
482.5695
 20
38.7952
 30
0.0
 10
482.5695
 20
38.7952
 30
0.0
 10
482.7339
 20
38.6309
 30
0.0
 10
482.7339
 20
38.6309
 30
0.0
 10
482.7339
 20
38.6309
 30
0.0
 10
482.7339
 20
38.6309
 30
0.0
 10
483.0552
 20
38.6309
 30
0.0
 10
483.0552
 20
38.6309
 30
0.0
 10
483.0552
 20
38.6309
 30
0.0
 10
483.0552
 20
38.6309
 30
0.0
 10
483.2195
 20
38.7952
 30
0.0
 10
483.2195
 20
38.7952
 30
0.0
 10
483.2195
 20
38.7952
 30
0.0
 10
483.2195
 20
38.7952
 30
0.0
 10
483.2195
 20
39.1239
 30
0.0
 10
483.2195
 20
39.1239
 30
0.0
 10
483.2195
 20
39.1239
 30
0.0
 10
483.2195
 20
39.1239
 30
0.0
 10
483.0552
 20
39.2808
 30
0.0
 10
483.0552
 20
39.2808
 30
0.0
 10
483.0552
 20
39.2808
 30
0.0
 10
483.0552
 20
39.2808
 30
0.0
 10
482.5695
 20
39.2808
 30
0.0
 10
482.5695
 20
39.2808
 30
0.0
 10
482.5695
 20
39.2808
 30
0.0
 10
482.5695
 20
39.2808
 30
0.0
 10
482.5695
 20
39.6096
 30
0.0
 10
482.5695
 20
39.6096
 30
0.0
 10
482.5695
 20
39.6096
 30
0.0
 10
482.5695
 20
39.6096
 30
0.0
 10
483.2195
 20
39.6096
 30
0.0
 10
483.2195
 20
39.6096
 30
0.0
  0
SPLINE
  5
253
330
1F
100
AcDbEntity
  8
DEFPOINTS
 62
     5
370
    25
100
AcDbSpline
210
0.0
220
0.0
230
1.0
 70
    24
 71
     3
 72
     8
 73
     4
 74
     0
 42
0.0000000001
 43
0.0000000001
 40
0.0
 40
0.0
 40
0.0
 40
0.0
 40
1.0
 40
1.0
 40
1.0
 40
1.0
 10
482.5695
 20
38.4665
 30
0.0
 10
482.5695
 20
38.4665
 30
0.0
 10
483.2195
 20
38.4665
 30
0.0
 10
483.2195
 20
38.4665
 30
0.0
  0
SPLINE
  5
254
330
1F
100
AcDbEntity
  8
DEFPOINTS
 62
     5
370
    25
100
AcDbSpline
210
0.0
220
0.0
230
1.0
 70
     8
 71
     3
 72
    40
 73
    36
 74
     0
 42
0.0000000001
 43
0.0000000001
 40
0.0
 40
0.0
 40
0.0
 40
0.0
 40
0.1111111111111111
 40
0.1111111111111111
 40
0.1111111111111111
 40
0.1111111111111111
 40
0.2222222222222222
 40
0.2222222222222222
 40
0.2222222222222222
 40
0.2222222222222222
 40
0.3333333333333333
 40
0.3333333333333333
 40
0.3333333333333333
 40
0.3333333333333333
 40
0.4444444444444444
 40
0.4444444444444444
 40
0.4444444444444444
 40
0.4444444444444444
 40
0.5555555555555556
 40
0.5555555555555556
 40
0.5555555555555556
 40
0.5555555555555556
 40
0.6666666666666667
 40
0.6666666666666667
 40
0.6666666666666667
 40
0.6666666666666667
 40
0.7777777777777779
 40
0.7777777777777779
 40
0.7777777777777779
 40
0.7777777777777779
 40
0.8888888888888891
 40
0.8888888888888891
 40
0.8888888888888891
 40
0.8888888888888891
 40
1.0
 40
1.0
 40
1.0
 40
1.0
 10
482.5695
 20
37.8166
 30
0.0
 10
482.5695
 20
37.8166
 30
0.0
 10
483.0552
 20
37.8166
 30
0.0
 10
483.0552
 20
37.8166
 30
0.0
 10
483.0552
 20
37.8166
 30
0.0
 10
483.0552
 20
37.8166
 30
0.0
 10
483.2195
 20
37.6522
 30
0.0
 10
483.2195
 20
37.6522
 30
0.0
 10
483.2195
 20
37.6522
 30
0.0
 10
483.2195
 20
37.6522
 30
0.0
 10
483.2195
 20
37.4878
 30
0.0
 10
483.2195
 20
37.4878
 30
0.0
 10
483.2195
 20
37.4878
 30
0.0
 10
483.2195
 20
37.4878
 30
0.0
 10
483.0552
 20
37.331
 30
0.0
 10
483.0552
 20
37.331
 30
0.0
 10
483.0552
 20
37.331
 30
0.0
 10
483.0552
 20
37.331
 30
0.0
 10
482.7339
 20
37.331
 30
0.0
 10
482.7339
 20
37.331
 30
0.0
 10
482.7339
 20
37.331
 30
0.0
 10
482.7339
 20
37.331
 30
0.0
 10
482.5695
 20
37.4878
 30
0.0
 10
482.5695
 20
37.4878
 30
0.0
 10
482.5695
 20
37.4878
 30
0.0
 10
482.5695
 20
37.4878
 30
0.0
 10
482.5695
 20
37.9809
 30
0.0
 10
482.5695
 20
37.9809
 30
0.0
 10
482.5695
 20
37.9809
 30
0.0
 10
482.5695
 20
37.9809
 30
0.0
 10
482.8908
 20
38.3096
 30
0.0
 10
482.8908
 20
38.3096
 30
0.0
 10
482.8908
 20
38.3096
 30
0.0
 10
482.8908
 20
38.3096
 30
0.0
 10
483.0552
 20
38.3096
 30
0.0
 10
483.0552
 20
38.3096
 30
0.0
  0
SPLINE
  5
255
330
1F
100
AcDbEntity
  8
DEFPOINTS
 62
     5
370
    25
100
AcDbSpline
210
0.0
220
0.0
230
1.0
 70
    24
 71
     3
 72
     8
 73
     4
 74
     0
 42
0.0000000001
 43
0.0000000001
 40
0.0
 40
0.0
 40
0.0
 40
0.0
 40
1.0
 40
1.0
 40
1.0
 40
1.0
 10
483.5482
 20
38.7056
 30
0.0
 10
483.5482
 20
38.7056
 30
0.0
 10
483.7798
 20
39.1688
 30
0.0
 10
483.7798
 20
39.1688
 30
0.0
  0
SPLINE
  5
256
330
1F
100
AcDbEntity
  8
DEFPOINTS
 62
     5
370
    25
100
AcDbSpline
210
0.0
220
0.0
230
1.0
 70
    24
 71
     3
 72
     8
 73
     4
 74
     0
 42
0.0000000001
 43
0.0000000001
 40
0.0
 40
0.0
 40
0.0
 40
0.0
 40
1.0
 40
1.0
 40
1.0
 40
1.0
 10
484.0114
 20
39.1688
 30
0.0
 10
484.0114
 20
39.1688
 30
0.0
 10
483.7798
 20
38.7056
 30
0.0
 10
483.7798
 20
38.7056
 30
0.0
  0
SPLINE
  5
257
330
1F
100
AcDbEntity
  8
DEFPOINTS
 62
     5
370
    25
100
AcDbSpline
210
0.0
220
0.0
230
1.0
 70
    24
 71
     3
 72
     8
 73
     4
 74
     0
 42
0.0000000001
 43
0.0000000001
 40
0.0
 40
0.0
 40
0.0
 40
0.0
 40
1.0
 40
1.0
 40
1.0
 40
1.0
 10
514.0439
 20
33.4462
 30
0.0
 10
514.0439
 20
33.4462
 30
0.0
 10
514.0439
 20
33.4163
 30
0.0
 10
514.0439
 20
33.4163
 30
0.0
  0
SPLINE
  5
258
330
1F
100
AcDbEntity
  8
DEFPOINTS
 62
     5
370
    25
100
AcDbSpline
210
0.0
220
0.0
230
1.0
 70
    24
 71
     3
 72
     8
 73
     4
 74
     0
 42
0.0000000001
 43
0.0000000001
 40
0.0
 40
0.0
 40
0.0
 40
0.0
 40
1.0
 40
1.0
 40
1.0
 40
1.0
 10
468.2107
 20
33.4462
 30
0.0
 10
468.2107
 20
33.4462
 30
0.0
 10
468.2107
 20
33.4163
 30
0.0
 10
468.2107
 20
33.4163
 30
0.0
  0
SPLINE
  5
259
330
1F
100
AcDbEntity
  8
DEFPOINTS
 62
     5
370
    25
100
AcDbSpline
210
0.0
220
0.0
230
1.0
 70
    24
 71
     3
 72
     8
 73
     4
 74
     0
 42
0.0000000001
 43
0.0000000001
 40
0.0
 40
0.0
 40
0.0
 40
0.0
 40
1.0
 40
1.0
 40
1.0
 40
1.0
 10
512.6469
 20
32.5795
 30
0.0
 10
512.6469
 20
32.5795
 30
0.0
 10
469.6077
 20
32.5795
 30
0.0
 10
469.6077
 20
32.5795
 30
0.0
  0
SPLINE
  5
25A
330
1F
100
AcDbEntity
  8
DEFPOINTS
 62
     5
100
AcDbSpline
210
0.0
220
0.0
230
1.0
 70
    11
 71
     3
 72
    16
 73
    12
 74
     0
 42
0.0000000001
 43
0.0000000001
 40
0.0
 40
0.0
 40
0.0
 40
0.0
 40
0.3333333333333333
 40
0.3333333333333333
 40
0.3333333333333333
 40
0.3333333333333333
 40
0.6666666666666666
 40
0.6666666666666666
 40
0.6666666666666666
 40
0.6666666666666666
 40
1.0
 40
1.0
 40
1.0
 40
1.0
 10
512.6469
 20
32.8111
 30
0.0
 10
512.6469
 20
32.8111
 30
0.0
 10
512.6469
 20
32.3405
 30
0.0
 10
512.6469
 20
32.3405
 30
0.0
 10
512.6469
 20
32.3405
 30
0.0
 10
512.6469
 20
32.3405
 30
0.0
 10
514.0439
 20
32.5795
 30
0.0
 10
514.0439
 20
32.5795
 30
0.0
 10
514.0439
 20
32.5795
 30
0.0
 10
514.0439
 20
32.5795
 30
0.0
 10
512.6469
 20
32.8111
 30
0.0
 10
512.6469
 20
32.8111
 30
0.0
  0
SPLINE
  5
25B
330
1F
100
AcDbEntity
  8
DEFPOINTS
 62
     5
100
AcDbSpline
210
0.0
220
0.0
230
1.0
 70
    11
 71
     3
 72
    16
 73
    12
 74
     0
 42
0.0000000001
 43
0.0000000001
 40
0.0
 40
0.0
 40
0.0
 40
0.0
 40
0.3333333333333333
 40
0.3333333333333333
 40
0.3333333333333333
 40
0.3333333333333333
 40
0.6666666666666666
 40
0.6666666666666666
 40
0.6666666666666666
 40
0.6666666666666666
 40
1.0
 40
1.0
 40
1.0
 40
1.0
 10
469.6077
 20
32.8111
 30
0.0
 10
469.6077
 20
32.8111
 30
0.0
 10
469.6077
 20
32.3405
 30
0.0
 10
469.6077
 20
32.3405
 30
0.0
 10
469.6077
 20
32.3405
 30
0.0
 10
469.6077
 20
32.3405
 30
0.0
 10
468.2107
 20
32.5795
 30
0.0
 10
468.2107
 20
32.5795
 30
0.0
 10
468.2107
 20
32.5795
 30
0.0
 10
468.2107
 20
32.5795
 30
0.0
 10
469.6077
 20
32.8111
 30
0.0
 10
469.6077
 20
32.8111
 30
0.0
  0
SPLINE
  5
25C
330
1F
100
AcDbEntity
  8
DEFPOINTS
 62
     5
370
    25
100
AcDbSpline
210
0.0
220
0.0
230
1.0
 70
     8
 71
     3
 72
    28
 73
    24
 74
     0
 42
0.0000000001
 43
0.0000000001
 40
0.0
 40
0.0
 40
0.0
 40
0.0
 40
0.1666666666666667
 40
0.1666666666666667
 40
0.1666666666666667
 40
0.1666666666666667
 40
0.3333333333333333
 40
0.3333333333333333
 40
0.3333333333333333
 40
0.3333333333333333
 40
0.5
 40
0.5
 40
0.5
 40
0.5
 40
0.6666666666666666
 40
0.6666666666666666
 40
0.6666666666666666
 40
0.6666666666666666
 40
0.8333333333333333
 40
0.8333333333333333
 40
0.8333333333333333
 40
0.8333333333333333
 40
1.0
 40
1.0
 40
1.0
 40
1.0
 10
489.4277
 20
35.0225
 30
0.0
 10
489.4277
 20
35.0225
 30
0.0
 10
489.6593
 20
35.2541
 30
0.0
 10
489.6593
 20
35.2541
 30
0.0
 10
489.6593
 20
35.2541
 30
0.0
 10
489.6593
 20
35.2541
 30
0.0
 10
490.13
 20
35.2541
 30
0.0
 10
490.13
 20
35.2541
 30
0.0
 10
490.13
 20
35.2541
 30
0.0
 10
490.13
 20
35.2541
 30
0.0
 10
490.3616
 20
35.0225
 30
0.0
 10
490.3616
 20
35.0225
 30
0.0
 10
490.3616
 20
35.0225
 30
0.0
 10
490.3616
 20
35.0225
 30
0.0
 10
490.3616
 20
34.7909
 30
0.0
 10
490.3616
 20
34.7909
 30
0.0
 10
490.3616
 20
34.7909
 30
0.0
 10
490.3616
 20
34.7909
 30
0.0
 10
490.13
 20
34.5593
 30
0.0
 10
490.13
 20
34.5593
 30
0.0
 10
490.13
 20
34.5593
 30
0.0
 10
490.13
 20
34.5593
 30
0.0
 10
489.8909
 20
34.5593
 30
0.0
 10
489.8909
 20
34.5593
 30
0.0
  0
SPLINE
  5
25D
330
1F
100
AcDbEntity
  8
DEFPOINTS
 62
     5
370
    25
100
AcDbSpline
210
0.0
220
0.0
230
1.0
 70
     8
 71
     3
 72
    24
 73
    20
 74
     0
 42
0.0000000001
 43
0.0000000001
 40
0.0
 40
0.0
 40
0.0
 40
0.0
 40
0.2
 40
0.2
 40
0.2
 40
0.2
 40
0.4
 40
0.4
 40
0.4
 40
0.4
 40
0.6000000000000001
 40
0.6000000000000001
 40
0.6000000000000001
 40
0.6000000000000001
 40
0.8
 40
0.8
 40
0.8
 40
0.8
 40
1.0
 40
1.0
 40
1.0
 40
1.0
 10
490.13
 20
34.5593
 30
0.0
 10
490.13
 20
34.5593
 30
0.0
 10
490.3616
 20
34.3203
 30
0.0
 10
490.3616
 20
34.3203
 30
0.0
 10
490.3616
 20
34.3203
 30
0.0
 10
490.3616
 20
34.3203
 30
0.0
 10
490.3616
 20
34.0886
 30
0.0
 10
490.3616
 20
34.0886
 30
0.0
 10
490.3616
 20
34.0886
 30
0.0
 10
490.3616
 20
34.0886
 30
0.0
 10
490.13
 20
33.857
 30
0.0
 10
490.13
 20
33.857
 30
0.0
 10
490.13
 20
33.857
 30
0.0
 10
490.13
 20
33.857
 30
0.0
 10
489.6593
 20
33.857
 30
0.0
 10
489.6593
 20
33.857
 30
0.0
 10
489.6593
 20
33.857
 30
0.0
 10
489.6593
 20
33.857
 30
0.0
 10
489.4277
 20
34.0886
 30
0.0
 10
489.4277
 20
34.0886
 30
0.0
  0
SPLINE
  5
25E
330
1F
100
AcDbEntity
  8
DEFPOINTS
 62
     5
370
    25
100
AcDbSpline
210
0.0
220
0.0
230
1.0
 70
     8
 71
     3
 72
    36
 73
    32
 74
     0
 42
0.0000000001
 43
0.0000000001
 40
0.0
 40
0.0
 40
0.0
 40
0.0
 40
0.125
 40
0.125
 40
0.125
 40
0.125
 40
0.25
 40
0.25
 40
0.25
 40
0.25
 40
0.375
 40
0.375
 40
0.375
 40
0.375
 40
0.5
 40
0.5
 40
0.5
 40
0.5
 40
0.625
 40
0.625
 40
0.625
 40
0.625
 40
0.75
 40
0.75
 40
0.75
 40
0.75
 40
0.875
 40
0.875
 40
0.875
 40
0.875
 40
1.0
 40
1.0
 40
1.0
 40
1.0
 10
490.8248
 20
34.0886
 30
0.0
 10
490.8248
 20
34.0886
 30
0.0
 10
491.0564
 20
33.857
 30
0.0
 10
491.0564
 20
33.857
 30
0.0
 10
491.0564
 20
33.857
 30
0.0
 10
491.0564
 20
33.857
 30
0.0
 10
491.527
 20
33.857
 30
0.0
 10
491.527
 20
33.857
 30
0.0
 10
491.527
 20
33.857
 30
0.0
 10
491.527
 20
33.857
 30
0.0
 10
491.7586
 20
34.0886
 30
0.0
 10
491.7586
 20
34.0886
 30
0.0
 10
491.7586
 20
34.0886
 30
0.0
 10
491.7586
 20
34.0886
 30
0.0
 10
491.7586
 20
34.5593
 30
0.0
 10
491.7586
 20
34.5593
 30
0.0
 10
491.7586
 20
34.5593
 30
0.0
 10
491.7586
 20
34.5593
 30
0.0
 10
491.527
 20
34.7909
 30
0.0
 10
491.527
 20
34.7909
 30
0.0
 10
491.527
 20
34.7909
 30
0.0
 10
491.527
 20
34.7909
 30
0.0
 10
490.8248
 20
34.7909
 30
0.0
 10
490.8248
 20
34.7909
 30
0.0
 10
490.8248
 20
34.7909
 30
0.0
 10
490.8248
 20
34.7909
 30
0.0
 10
490.8248
 20
35.2541
 30
0.0
 10
490.8248
 20
35.2541
 30
0.0
 10
490.8248
 20
35.2541
 30
0.0
 10
490.8248
 20
35.2541
 30
0.0
 10
491.7586
 20
35.2541
 30
0.0
 10
491.7586
 20
35.2541
 30
0.0
  0
SPLINE
  5
25F
330
1F
100
AcDbEntity
  8
DEFPOINTS
 62
     5
370
    25
100
AcDbSpline
210
0.0
220
0.0
230
1.0
 70
     8
 71
     3
 72
    12
 73
     8
 74
     0
 42
0.0000000001
 43
0.0000000001
 40
0.0
 40
0.0
 40
0.0
 40
0.0
 40
0.5
 40
0.5
 40
0.5
 40
0.5
 40
1.0
 40
1.0
 40
1.0
 40
1.0
 10
492.2218
 20
35.6949
 30
0.0
 10
492.2218
 20
35.6949
 30
0.0
 10
492.8718
 20
35.6949
 30
0.0
 10
492.8718
 20
35.6949
 30
0.0
 10
492.8718
 20
35.6949
 30
0.0
 10
492.8718
 20
35.6949
 30
0.0
 10
492.3861
 20
34.7162
 30
0.0
 10
492.3861
 20
34.7162
 30
0.0
  0
SPLINE
  5
260
330
1F
100
AcDbEntity
  8
DEFPOINTS
 62
     5
370
    25
100
AcDbSpline
210
0.0
220
0.0
230
1.0
 70
    24
 71
     3
 72
     8
 73
     4
 74
     0
 42
0.0000000001
 43
0.0000000001
 40
0.0
 40
0.0
 40
0.0
 40
0.0
 40
1.0
 40
1.0
 40
1.0
 40
1.0
 10
492.2218
 20
34.5593
 30
0.0
 10
492.2218
 20
34.5593
 30
0.0
 10
492.8718
 20
34.5593
 30
0.0
 10
492.8718
 20
34.5593
 30
0.0
  0
SPLINE
  5
261
330
1F
100
AcDbEntity
  8
DEFPOINTS
 62
     5
370
    25
100
AcDbSpline
210
0.0
220
0.0
230
1.0
 70
     8
 71
     3
 72
    48
 73
    44
 74
     0
 42
0.0000000001
 43
0.0000000001
 40
0.0
 40
0.0
 40
0.0
 40
0.0
 40
0.0909090909090909
 40
0.0909090909090909
 40
0.0909090909090909
 40
0.0909090909090909
 40
0.1818181818181818
 40
0.1818181818181818
 40
0.1818181818181818
 40
0.1818181818181818
 40
0.2727272727272727
 40
0.2727272727272727
 40
0.2727272727272727
 40
0.2727272727272727
 40
0.3636363636363636
 40
0.3636363636363636
 40
0.3636363636363636
 40
0.3636363636363636
 40
0.4545454545454546
 40
0.4545454545454546
 40
0.4545454545454546
 40
0.4545454545454546
 40
0.5454545454545455
 40
0.5454545454545455
 40
0.5454545454545455
 40
0.5454545454545455
 40
0.6363636363636365
 40
0.6363636363636365
 40
0.6363636363636365
 40
0.6363636363636365
 40
0.7272727272727274
 40
0.7272727272727274
 40
0.7272727272727274
 40
0.7272727272727274
 40
0.8181818181818183
 40
0.8181818181818183
 40
0.8181818181818183
 40
0.8181818181818183
 40
0.9090909090909093
 40
0.9090909090909093
 40
0.9090909090909093
 40
0.9090909090909093
 40
1.0
 40
1.0
 40
1.0
 40
1.0
 10
492.3861
 20
33.4163
 30
0.0
 10
492.3861
 20
33.4163
 30
0.0
 10
492.2218
 20
33.5806
 30
0.0
 10
492.2218
 20
33.5806
 30
0.0
 10
492.2218
 20
33.5806
 30
0.0
 10
492.2218
 20
33.5806
 30
0.0
 10
492.2218
 20
33.7375
 30
0.0
 10
492.2218
 20
33.7375
 30
0.0
 10
492.2218
 20
33.7375
 30
0.0
 10
492.2218
 20
33.7375
 30
0.0
 10
492.3861
 20
33.9019
 30
0.0
 10
492.3861
 20
33.9019
 30
0.0
 10
492.3861
 20
33.9019
 30
0.0
 10
492.3861
 20
33.9019
 30
0.0
 10
492.7149
 20
33.9019
 30
0.0
 10
492.7149
 20
33.9019
 30
0.0
 10
492.7149
 20
33.9019
 30
0.0
 10
492.7149
 20
33.9019
 30
0.0
 10
492.8718
 20
34.0662
 30
0.0
 10
492.8718
 20
34.0662
 30
0.0
 10
492.8718
 20
34.0662
 30
0.0
 10
492.8718
 20
34.0662
 30
0.0
 10
492.8718
 20
34.2306
 30
0.0
 10
492.8718
 20
34.2306
 30
0.0
 10
492.8718
 20
34.2306
 30
0.0
 10
492.8718
 20
34.2306
 30
0.0
 10
492.7149
 20
34.3949
 30
0.0
 10
492.7149
 20
34.3949
 30
0.0
 10
492.7149
 20
34.3949
 30
0.0
 10
492.7149
 20
34.3949
 30
0.0
 10
492.3861
 20
34.3949
 30
0.0
 10
492.3861
 20
34.3949
 30
0.0
 10
492.3861
 20
34.3949
 30
0.0
 10
492.3861
 20
34.3949
 30
0.0
 10
492.2218
 20
34.2306
 30
0.0
 10
492.2218
 20
34.2306
 30
0.0
 10
492.2218
 20
34.2306
 30
0.0
 10
492.2218
 20
34.2306
 30
0.0
 10
492.2218
 20
34.0662
 30
0.0
 10
492.2218
 20
34.0662
 30
0.0
 10
492.2218
 20
34.0662
 30
0.0
 10
492.2218
 20
34.0662
 30
0.0
 10
492.3861
 20
33.9019
 30
0.0
 10
492.3861
 20
33.9019
 30
0.0
  0
SPLINE
  5
262
330
1F
100
AcDbEntity
  8
DEFPOINTS
 62
     5
370
    25
100
AcDbSpline
210
0.0
220
0.0
230
1.0
 70
     8
 71
     3
 72
    20
 73
    16
 74
     0
 42
0.0000000001
 43
0.0000000001
 40
0.0
 40
0.0
 40
0.0
 40
0.0
 40
0.25
 40
0.25
 40
0.25
 40
0.25
 40
0.5
 40
0.5
 40
0.5
 40
0.5
 40
0.75
 40
0.75
 40
0.75
 40
0.75
 40
1.0
 40
1.0
 40
1.0
 40
1.0
 10
492.7149
 20
33.9019
 30
0.0
 10
492.7149
 20
33.9019
 30
0.0
 10
492.8718
 20
33.7375
 30
0.0
 10
492.8718
 20
33.7375
 30
0.0
 10
492.8718
 20
33.7375
 30
0.0
 10
492.8718
 20
33.7375
 30
0.0
 10
492.8718
 20
33.5806
 30
0.0
 10
492.8718
 20
33.5806
 30
0.0
 10
492.8718
 20
33.5806
 30
0.0
 10
492.8718
 20
33.5806
 30
0.0
 10
492.7149
 20
33.4163
 30
0.0
 10
492.7149
 20
33.4163
 30
0.0
 10
492.7149
 20
33.4163
 30
0.0
 10
492.7149
 20
33.4163
 30
0.0
 10
492.3861
 20
33.4163
 30
0.0
 10
492.3861
 20
33.4163
 30
0.0
  0
SPLINE
  5
263
330
1F
100
AcDbEntity
  8
DEFPOINTS
 62
     5
370
    25
100
AcDbSpline
210
0.0
220
0.0
230
1.0
 70
    24
 71
     3
 72
     8
 73
     4
 74
     0
 42
0.0000000001
 43
0.0000000001
 40
0.0
 40
0.0
 40
0.0
 40
0.0
 40
1.0
 40
1.0
 40
1.0
 40
1.0
 10
493.2005
 20
34.7909
 30
0.0
 10
493.2005
 20
34.7909
 30
0.0
 10
493.4321
 20
35.2541
 30
0.0
 10
493.4321
 20
35.2541
 30
0.0
  0
SPLINE
  5
264
330
1F
100
AcDbEntity
  8
DEFPOINTS
 62
     5
370
    25
100
AcDbSpline
210
0.0
220
0.0
230
1.0
 70
    24
 71
     3
 72
     8
 73
     4
 74
     0
 42
0.0000000001
 43
0.0000000001
 40
0.0
 40
0.0
 40
0.0
 40
0.0
 40
1.0
 40
1.0
 40
1.0
 40
1.0
 10
493.6636
 20
35.2541
 30
0.0
 10
493.6636
 20
35.2541
 30
0.0
 10
493.4321
 20
34.7909
 30
0.0
 10
493.4321
 20
34.7909
 30
0.0
  0
SPLINE
  5
265
330
1F
100
AcDbEntity
  8
DEFPOINTS
 62
     5
370
    25
100
AcDbSpline
210
0.0
220
0.0
230
1.0
 70
    24
 71
     3
 72
     8
 73
     4
 74
     0
 42
0.0000000001
 43
0.0000000001
 40
0.0
 40
0.0
 40
0.0
 40
0.0
 40
1.0
 40
1.0
 40
1.0
 40
1.0
 10
495.6285
 20
36.9425
 30
0.0
 10
495.6285
 20
36.9425
 30
0.0
 10
495.6285
 20
35.65
 30
0.0
 10
495.6285
 20
35.65
 30
0.0
  0
SPLINE
  5
266
330
1F
100
AcDbEntity
  8
DEFPOINTS
 62
     5
370
    25
100
AcDbSpline
210
0.0
220
0.0
230
1.0
 70
    24
 71
     3
 72
     8
 73
     4
 74
     0
 42
0.0000000001
 43
0.0000000001
 40
0.0
 40
0.0
 40
0.0
 40
0.0
 40
1.0
 40
1.0
 40
1.0
 40
1.0
 10
511.5263
 20
37.3608
 30
0.0
 10
511.5263
 20
37.3608
 30
0.0
 10
511.5263
 20
37.331
 30
0.0
 10
511.5263
 20
37.331
 30
0.0
  0
SPLINE
  5
267
330
1F
100
AcDbEntity
  8
DEFPOINTS
 62
     5
370
    25
100
AcDbSpline
210
0.0
220
0.0
230
1.0
 70
    24
 71
     3
 72
     8
 73
     4
 74
     0
 42
0.0000000001
 43
0.0000000001
 40
0.0
 40
0.0
 40
0.0
 40
0.0
 40
1.0
 40
1.0
 40
1.0
 40
1.0
 10
497.0255
 20
36.4868
 30
0.0
 10
497.0255
 20
36.4868
 30
0.0
 10
510.1293
 20
36.4868
 30
0.0
 10
510.1293
 20
36.4868
 30
0.0
  0
SPLINE
  5
268
330
1F
100
AcDbEntity
  8
DEFPOINTS
 62
     5
100
AcDbSpline
210
0.0
220
0.0
230
1.0
 70
    11
 71
     3
 72
    16
 73
    12
 74
     0
 42
0.0000000001
 43
0.0000000001
 40
0.0
 40
0.0
 40
0.0
 40
0.0
 40
0.3333333333333333
 40
0.3333333333333333
 40
0.3333333333333333
 40
0.3333333333333333
 40
0.6666666666666666
 40
0.6666666666666666
 40
0.6666666666666666
 40
0.6666666666666666
 40
1.0
 40
1.0
 40
1.0
 40
1.0
 10
497.0255
 20
36.7258
 30
0.0
 10
497.0255
 20
36.7258
 30
0.0
 10
497.0255
 20
36.2552
 30
0.0
 10
497.0255
 20
36.2552
 30
0.0
 10
497.0255
 20
36.2552
 30
0.0
 10
497.0255
 20
36.2552
 30
0.0
 10
495.6285
 20
36.4868
 30
0.0
 10
495.6285
 20
36.4868
 30
0.0
 10
495.6285
 20
36.4868
 30
0.0
 10
495.6285
 20
36.4868
 30
0.0
 10
497.0255
 20
36.7258
 30
0.0
 10
497.0255
 20
36.7258
 30
0.0
  0
SPLINE
  5
269
330
1F
100
AcDbEntity
  8
DEFPOINTS
 62
     5
100
AcDbSpline
210
0.0
220
0.0
230
1.0
 70
    11
 71
     3
 72
    16
 73
    12
 74
     0
 42
0.0000000001
 43
0.0000000001
 40
0.0
 40
0.0
 40
0.0
 40
0.0
 40
0.3333333333333333
 40
0.3333333333333333
 40
0.3333333333333333
 40
0.3333333333333333
 40
0.6666666666666666
 40
0.6666666666666666
 40
0.6666666666666666
 40
0.6666666666666666
 40
1.0
 40
1.0
 40
1.0
 40
1.0
 10
510.1293
 20
36.7258
 30
0.0
 10
510.1293
 20
36.7258
 30
0.0
 10
510.1293
 20
36.2552
 30
0.0
 10
510.1293
 20
36.2552
 30
0.0
 10
510.1293
 20
36.2552
 30
0.0
 10
510.1293
 20
36.2552
 30
0.0
 10
511.5263
 20
36.4868
 30
0.0
 10
511.5263
 20
36.4868
 30
0.0
 10
511.5263
 20
36.4868
 30
0.0
 10
511.5263
 20
36.4868
 30
0.0
 10
510.1293
 20
36.7258
 30
0.0
 10
510.1293
 20
36.7258
 30
0.0
  0
SPLINE
  5
26A
330
1F
100
AcDbEntity
  8
DEFPOINTS
 62
     5
370
    25
100
AcDbSpline
210
0.0
220
0.0
230
1.0
 70
     8
 71
     3
 72
    12
 73
     8
 74
     0
 42
0.0000000001
 43
0.0000000001
 40
0.0
 40
0.0
 40
0.0
 40
0.0
 40
0.5
 40
0.5
 40
0.5
 40
0.5
 40
1.0
 40
1.0
 40
1.0
 40
1.0
 10
505.6916
 20
38.9372
 30
0.0
 10
505.6916
 20
38.9372
 30
0.0
 10
505.9232
 20
39.1688
 30
0.0
 10
505.9232
 20
39.1688
 30
0.0
 10
505.9232
 20
39.1688
 30
0.0
 10
505.9232
 20
39.1688
 30
0.0
 10
505.9232
 20
37.7718
 30
0.0
 10
505.9232
 20
37.7718
 30
0.0
  0
SPLINE
  5
26B
330
1F
100
AcDbEntity
  8
DEFPOINTS
 62
     5
370
    25
100
AcDbSpline
210
0.0
220
0.0
230
1.0
 70
    24
 71
     3
 72
     8
 73
     4
 74
     0
 42
0.0000000001
 43
0.0000000001
 40
0.0
 40
0.0
 40
0.0
 40
0.0
 40
1.0
 40
1.0
 40
1.0
 40
1.0
 10
505.6916
 20
37.7718
 30
0.0
 10
505.6916
 20
37.7718
 30
0.0
 10
506.1623
 20
37.7718
 30
0.0
 10
506.1623
 20
37.7718
 30
0.0
  0
SPLINE
  5
26C
330
1F
100
AcDbEntity
  8
DEFPOINTS
 62
     5
370
    25
100
AcDbSpline
210
0.0
220
0.0
230
1.0
 70
     8
 71
     3
 72
    40
 73
    36
 74
     0
 42
0.0000000001
 43
0.0000000001
 40
0.0
 40
0.0
 40
0.0
 40
0.0
 40
0.1111111111111111
 40
0.1111111111111111
 40
0.1111111111111111
 40
0.1111111111111111
 40
0.2222222222222222
 40
0.2222222222222222
 40
0.2222222222222222
 40
0.2222222222222222
 40
0.3333333333333333
 40
0.3333333333333333
 40
0.3333333333333333
 40
0.3333333333333333
 40
0.4444444444444444
 40
0.4444444444444444
 40
0.4444444444444444
 40
0.4444444444444444
 40
0.5555555555555556
 40
0.5555555555555556
 40
0.5555555555555556
 40
0.5555555555555556
 40
0.6666666666666667
 40
0.6666666666666667
 40
0.6666666666666667
 40
0.6666666666666667
 40
0.7777777777777779
 40
0.7777777777777779
 40
0.7777777777777779
 40
0.7777777777777779
 40
0.8888888888888891
 40
0.8888888888888891
 40
0.8888888888888891
 40
0.8888888888888891
 40
1.0
 40
1.0
 40
1.0
 40
1.0
 10
506.6255
 20
38.9372
 30
0.0
 10
506.6255
 20
38.9372
 30
0.0
 10
506.8571
 20
39.1688
 30
0.0
 10
506.8571
 20
39.1688
 30
0.0
 10
506.8571
 20
39.1688
 30
0.0
 10
506.8571
 20
39.1688
 30
0.0
 10
507.3277
 20
39.1688
 30
0.0
 10
507.3277
 20
39.1688
 30
0.0
 10
507.3277
 20
39.1688
 30
0.0
 10
507.3277
 20
39.1688
 30
0.0
 10
507.5593
 20
38.9372
 30
0.0
 10
507.5593
 20
38.9372
 30
0.0
 10
507.5593
 20
38.9372
 30
0.0
 10
507.5593
 20
38.9372
 30
0.0
 10
507.5593
 20
38.7056
 30
0.0
 10
507.5593
 20
38.7056
 30
0.0
 10
507.5593
 20
38.7056
 30
0.0
 10
507.5593
 20
38.7056
 30
0.0
 10
507.3277
 20
38.4665
 30
0.0
 10
507.3277
 20
38.4665
 30
0.0
 10
507.3277
 20
38.4665
 30
0.0
 10
507.3277
 20
38.4665
 30
0.0
 10
506.8571
 20
38.4665
 30
0.0
 10
506.8571
 20
38.4665
 30
0.0
 10
506.8571
 20
38.4665
 30
0.0
 10
506.8571
 20
38.4665
 30
0.0
 10
506.6255
 20
38.2349
 30
0.0
 10
506.6255
 20
38.2349
 30
0.0
 10
506.6255
 20
38.2349
 30
0.0
 10
506.6255
 20
38.2349
 30
0.0
 10
506.6255
 20
37.7718
 30
0.0
 10
506.6255
 20
37.7718
 30
0.0
 10
506.6255
 20
37.7718
 30
0.0
 10
506.6255
 20
37.7718
 30
0.0
 10
507.5593
 20
37.7718
 30
0.0
 10
507.5593
 20
37.7718
 30
0.0
  0
SPLINE
  5
26D
330
1F
100
AcDbEntity
  8
DEFPOINTS
 62
     5
370
    25
100
AcDbSpline
210
0.0
220
0.0
230
1.0
 70
     8
 71
     3
 72
    12
 73
     8
 74
     0
 42
0.0000000001
 43
0.0000000001
 40
0.0
 40
0.0
 40
0.0
 40
0.0
 40
0.5
 40
0.5
 40
0.5
 40
0.5
 40
1.0
 40
1.0
 40
1.0
 40
1.0
 10
508.1868
 20
39.4452
 30
0.0
 10
508.1868
 20
39.4452
 30
0.0
 10
508.3512
 20
39.6096
 30
0.0
 10
508.3512
 20
39.6096
 30
0.0
 10
508.3512
 20
39.6096
 30
0.0
 10
508.3512
 20
39.6096
 30
0.0
 10
508.3512
 20
38.6309
 30
0.0
 10
508.3512
 20
38.6309
 30
0.0
  0
SPLINE
  5
26E
330
1F
100
AcDbEntity
  8
DEFPOINTS
 62
     5
370
    25
100
AcDbSpline
210
0.0
220
0.0
230
1.0
 70
    24
 71
     3
 72
     8
 73
     4
 74
     0
 42
0.0000000001
 43
0.0000000001
 40
0.0
 40
0.0
 40
0.0
 40
0.0
 40
1.0
 40
1.0
 40
1.0
 40
1.0
 10
508.1868
 20
38.6309
 30
0.0
 10
508.1868
 20
38.6309
 30
0.0
 10
508.5156
 20
38.6309
 30
0.0
 10
508.5156
 20
38.6309
 30
0.0
  0
SPLINE
  5
26F
330
1F
100
AcDbEntity
  8
DEFPOINTS
 62
     5
370
    25
100
AcDbSpline
210
0.0
220
0.0
230
1.0
 70
    24
 71
     3
 72
     8
 73
     4
 74
     0
 42
0.0000000001
 43
0.0000000001
 40
0.0
 40
0.0
 40
0.0
 40
0.0
 40
1.0
 40
1.0
 40
1.0
 40
1.0
 10
508.0225
 20
38.4665
 30
0.0
 10
508.0225
 20
38.4665
 30
0.0
 10
508.6725
 20
38.4665
 30
0.0
 10
508.6725
 20
38.4665
 30
0.0
  0
SPLINE
  5
270
330
1F
100
AcDbEntity
  8
DEFPOINTS
 62
     5
370
    25
100
AcDbSpline
210
0.0
220
0.0
230
1.0
 70
     8
 71
     3
 72
    40
 73
    36
 74
     0
 42
0.0000000001
 43
0.0000000001
 40
0.0
 40
0.0
 40
0.0
 40
0.0
 40
0.1111111111111111
 40
0.1111111111111111
 40
0.1111111111111111
 40
0.1111111111111111
 40
0.2222222222222222
 40
0.2222222222222222
 40
0.2222222222222222
 40
0.2222222222222222
 40
0.3333333333333333
 40
0.3333333333333333
 40
0.3333333333333333
 40
0.3333333333333333
 40
0.4444444444444444
 40
0.4444444444444444
 40
0.4444444444444444
 40
0.4444444444444444
 40
0.5555555555555556
 40
0.5555555555555556
 40
0.5555555555555556
 40
0.5555555555555556
 40
0.6666666666666667
 40
0.6666666666666667
 40
0.6666666666666667
 40
0.6666666666666667
 40
0.7777777777777779
 40
0.7777777777777779
 40
0.7777777777777779
 40
0.7777777777777779
 40
0.8888888888888891
 40
0.8888888888888891
 40
0.8888888888888891
 40
0.8888888888888891
 40
1.0
 40
1.0
 40
1.0
 40
1.0
 10
508.0225
 20
38.1453
 30
0.0
 10
508.0225
 20
38.1453
 30
0.0
 10
508.1868
 20
38.3096
 30
0.0
 10
508.1868
 20
38.3096
 30
0.0
 10
508.1868
 20
38.3096
 30
0.0
 10
508.1868
 20
38.3096
 30
0.0
 10
508.5156
 20
38.3096
 30
0.0
 10
508.5156
 20
38.3096
 30
0.0
 10
508.5156
 20
38.3096
 30
0.0
 10
508.5156
 20
38.3096
 30
0.0
 10
508.6725
 20
38.1453
 30
0.0
 10
508.6725
 20
38.1453
 30
0.0
 10
508.6725
 20
38.1453
 30
0.0
 10
508.6725
 20
38.1453
 30
0.0
 10
508.6725
 20
37.9809
 30
0.0
 10
508.6725
 20
37.9809
 30
0.0
 10
508.6725
 20
37.9809
 30
0.0
 10
508.6725
 20
37.9809
 30
0.0
 10
508.5156
 20
37.8166
 30
0.0
 10
508.5156
 20
37.8166
 30
0.0
 10
508.5156
 20
37.8166
 30
0.0
 10
508.5156
 20
37.8166
 30
0.0
 10
508.1868
 20
37.8166
 30
0.0
 10
508.1868
 20
37.8166
 30
0.0
 10
508.1868
 20
37.8166
 30
0.0
 10
508.1868
 20
37.8166
 30
0.0
 10
508.0225
 20
37.6522
 30
0.0
 10
508.0225
 20
37.6522
 30
0.0
 10
508.0225
 20
37.6522
 30
0.0
 10
508.0225
 20
37.6522
 30
0.0
 10
508.0225
 20
37.331
 30
0.0
 10
508.0225
 20
37.331
 30
0.0
 10
508.0225
 20
37.331
 30
0.0
 10
508.0225
 20
37.331
 30
0.0
 10
508.6725
 20
37.331
 30
0.0
 10
508.6725
 20
37.331
 30
0.0
  0
SPLINE
  5
271
330
1F
100
AcDbEntity
  8
DEFPOINTS
 62
     5
370
    25
100
AcDbSpline
210
0.0
220
0.0
230
1.0
 70
    24
 71
     3
 72
     8
 73
     4
 74
     0
 42
0.0000000001
 43
0.0000000001
 40
0.0
 40
0.0
 40
0.0
 40
0.0
 40
1.0
 40
1.0
 40
1.0
 40
1.0
 10
509.0012
 20
38.7056
 30
0.0
 10
509.0012
 20
38.7056
 30
0.0
 10
509.2328
 20
39.1688
 30
0.0
 10
509.2328
 20
39.1688
 30
0.0
  0
SPLINE
  5
272
330
1F
100
AcDbEntity
  8
DEFPOINTS
 62
     5
370
    25
100
AcDbSpline
210
0.0
220
0.0
230
1.0
 70
    24
 71
     3
 72
     8
 73
     4
 74
     0
 42
0.0000000001
 43
0.0000000001
 40
0.0
 40
0.0
 40
0.0
 40
0.0
 40
1.0
 40
1.0
 40
1.0
 40
1.0
 10
509.4643
 20
39.1688
 30
0.0
 10
509.4643
 20
39.1688
 30
0.0
 10
509.2328
 20
38.7056
 30
0.0
 10
509.2328
 20
38.7056
 30
0.0
  0
SPLINE
  5
273
330
1F
100
AcDbEntity
  8
DEFPOINTS
 62
     5
370
    25
100
AcDbSpline
210
0.0
220
0.0
230
1.0
 70
    24
 71
     3
 72
     8
 73
     4
 74
     0
 42
0.0000000001
 43
0.0000000001
 40
0.0
 40
0.0
 40
0.0
 40
0.0
 40
1.0
 40
1.0
 40
1.0
 40
1.0
 10
516.9202
 20
63.3517
 30
0.0
 10
516.9202
 20
63.3517
 30
0.0
 10
516.838
 20
63.3517
 30
0.0
 10
516.838
 20
63.3517
 30
0.0
  0
SPLINE
  5
274
330
1F
100
AcDbEntity
  8
DEFPOINTS
 62
     5
370
    25
100
AcDbSpline
210
0.0
220
0.0
230
1.0
 70
    24
 71
     3
 72
     8
 73
     4
 74
     0
 42
0.0000000001
 43
0.0000000001
 40
0.0
 40
0.0
 40
0.0
 40
0.0
 40
1.0
 40
1.0
 40
1.0
 40
1.0
 10
516.838
 20
42.9714
 30
0.0
 10
516.838
 20
42.9714
 30
0.0
 10
516.8455
 20
42.9714
 30
0.0
 10
516.8455
 20
42.9714
 30
0.0
  0
SPLINE
  5
275
330
1F
100
AcDbEntity
  8
DEFPOINTS
 62
     5
370
    25
100
AcDbSpline
210
0.0
220
0.0
230
1.0
 70
    24
 71
     3
 72
     8
 73
     4
 74
     0
 42
0.0000000001
 43
0.0000000001
 40
0.0
 40
0.0
 40
0.0
 40
0.0
 40
1.0
 40
1.0
 40
1.0
 40
1.0
 10
517.6747
 20
61.9547
 30
0.0
 10
517.6747
 20
61.9547
 30
0.0
 10
517.6747
 20
54.7155
 30
0.0
 10
517.6747
 20
54.7155
 30
0.0
  0
SPLINE
  5
276
330
1F
100
AcDbEntity
  8
DEFPOINTS
 62
     5
370
    25
100
AcDbSpline
210
0.0
220
0.0
230
1.0
 70
    24
 71
     3
 72
     8
 73
     4
 74
     0
 42
0.0000000001
 43
0.0000000001
 40
0.0
 40
0.0
 40
0.0
 40
0.0
 40
1.0
 40
1.0
 40
1.0
 40
1.0
 10
517.6747
 20
44.3684
 30
0.0
 10
517.6747
 20
44.3684
 30
0.0
 10
517.6747
 20
51.645
 30
0.0
 10
517.6747
 20
51.645
 30
0.0
  0
SPLINE
  5
277
330
1F
100
AcDbEntity
  8
DEFPOINTS
 62
     5
100
AcDbSpline
210
0.0
220
0.0
230
1.0
 70
    11
 71
     3
 72
    16
 73
    12
 74
     0
 42
0.0000000001
 43
0.0000000001
 40
0.0
 40
0.0
 40
0.0
 40
0.0
 40
0.3333333333333333
 40
0.3333333333333333
 40
0.3333333333333333
 40
0.3333333333333333
 40
0.6666666666666666
 40
0.6666666666666666
 40
0.6666666666666666
 40
0.6666666666666666
 40
1.0
 40
1.0
 40
1.0
 40
1.0
 10
517.4431
 20
61.9547
 30
0.0
 10
517.4431
 20
61.9547
 30
0.0
 10
517.9064
 20
61.9547
 30
0.0
 10
517.9064
 20
61.9547
 30
0.0
 10
517.9064
 20
61.9547
 30
0.0
 10
517.9064
 20
61.9547
 30
0.0
 10
517.6747
 20
63.3517
 30
0.0
 10
517.6747
 20
63.3517
 30
0.0
 10
517.6747
 20
63.3517
 30
0.0
 10
517.6747
 20
63.3517
 30
0.0
 10
517.4431
 20
61.9547
 30
0.0
 10
517.4431
 20
61.9547
 30
0.0
  0
SPLINE
  5
278
330
1F
100
AcDbEntity
  8
DEFPOINTS
 62
     5
100
AcDbSpline
210
0.0
220
0.0
230
1.0
 70
    11
 71
     3
 72
    16
 73
    12
 74
     0
 42
0.0000000001
 43
0.0000000001
 40
0.0
 40
0.0
 40
0.0
 40
0.0
 40
0.3333333333333333
 40
0.3333333333333333
 40
0.3333333333333333
 40
0.3333333333333333
 40
0.6666666666666666
 40
0.6666666666666666
 40
0.6666666666666666
 40
0.6666666666666666
 40
1.0
 40
1.0
 40
1.0
 40
1.0
 10
517.4431
 20
44.3684
 30
0.0
 10
517.4431
 20
44.3684
 30
0.0
 10
517.9064
 20
44.3684
 30
0.0
 10
517.9064
 20
44.3684
 30
0.0
 10
517.9064
 20
44.3684
 30
0.0
 10
517.9064
 20
44.3684
 30
0.0
 10
517.6747
 20
42.9714
 30
0.0
 10
517.6747
 20
42.9714
 30
0.0
 10
517.6747
 20
42.9714
 30
0.0
 10
517.6747
 20
42.9714
 30
0.0
 10
517.4431
 20
44.3684
 30
0.0
 10
517.4431
 20
44.3684
 30
0.0
  0
SPLINE
  5
279
330
1F
100
AcDbEntity
  8
DEFPOINTS
 62
     5
370
    25
100
AcDbSpline
210
0.0
220
0.0
230
1.0
 70
     8
 71
     3
 72
    12
 73
     8
 74
     0
 42
0.0000000001
 43
0.0000000001
 40
0.0
 40
0.0
 40
0.0
 40
0.0
 40
0.5
 40
0.5
 40
0.5
 40
0.5
 40
1.0
 40
1.0
 40
1.0
 40
1.0
 10
516.2777
 20
53.6471
 30
0.0
 10
516.2777
 20
53.6471
 30
0.0
 10
516.5093
 20
53.8787
 30
0.0
 10
516.5093
 20
53.8787
 30
0.0
 10
516.5093
 20
53.8787
 30
0.0
 10
516.5093
 20
53.8787
 30
0.0
 10
516.5093
 20
52.4817
 30
0.0
 10
516.5093
 20
52.4817
 30
0.0
  0
SPLINE
  5
27A
330
1F
100
AcDbEntity
  8
DEFPOINTS
 62
     5
370
    25
100
AcDbSpline
210
0.0
220
0.0
230
1.0
 70
    24
 71
     3
 72
     8
 73
     4
 74
     0
 42
0.0000000001
 43
0.0000000001
 40
0.0
 40
0.0
 40
0.0
 40
0.0
 40
1.0
 40
1.0
 40
1.0
 40
1.0
 10
516.2777
 20
52.4817
 30
0.0
 10
516.2777
 20
52.4817
 30
0.0
 10
516.7409
 20
52.4817
 30
0.0
 10
516.7409
 20
52.4817
 30
0.0
  0
SPLINE
  5
27B
330
1F
100
AcDbEntity
  8
DEFPOINTS
 62
     5
370
    25
100
AcDbSpline
210
0.0
220
0.0
230
1.0
 70
     8
 71
     3
 72
    40
 73
    36
 74
     0
 42
0.0000000001
 43
0.0000000001
 40
0.0
 40
0.0
 40
0.0
 40
0.0
 40
0.1111111111111111
 40
0.1111111111111111
 40
0.1111111111111111
 40
0.1111111111111111
 40
0.2222222222222222
 40
0.2222222222222222
 40
0.2222222222222222
 40
0.2222222222222222
 40
0.3333333333333333
 40
0.3333333333333333
 40
0.3333333333333333
 40
0.3333333333333333
 40
0.4444444444444444
 40
0.4444444444444444
 40
0.4444444444444444
 40
0.4444444444444444
 40
0.5555555555555556
 40
0.5555555555555556
 40
0.5555555555555556
 40
0.5555555555555556
 40
0.6666666666666667
 40
0.6666666666666667
 40
0.6666666666666667
 40
0.6666666666666667
 40
0.7777777777777779
 40
0.7777777777777779
 40
0.7777777777777779
 40
0.7777777777777779
 40
0.8888888888888891
 40
0.8888888888888891
 40
0.8888888888888891
 40
0.8888888888888891
 40
1.0
 40
1.0
 40
1.0
 40
1.0
 10
517.2116
 20
53.184
 30
0.0
 10
517.2116
 20
53.184
 30
0.0
 10
517.9064
 20
53.184
 30
0.0
 10
517.9064
 20
53.184
 30
0.0
 10
517.9064
 20
53.184
 30
0.0
 10
517.9064
 20
53.184
 30
0.0
 10
518.1379
 20
52.9524
 30
0.0
 10
518.1379
 20
52.9524
 30
0.0
 10
518.1379
 20
52.9524
 30
0.0
 10
518.1379
 20
52.9524
 30
0.0
 10
518.1379
 20
52.7133
 30
0.0
 10
518.1379
 20
52.7133
 30
0.0
 10
518.1379
 20
52.7133
 30
0.0
 10
518.1379
 20
52.7133
 30
0.0
 10
517.9064
 20
52.4817
 30
0.0
 10
517.9064
 20
52.4817
 30
0.0
 10
517.9064
 20
52.4817
 30
0.0
 10
517.9064
 20
52.4817
 30
0.0
 10
517.4431
 20
52.4817
 30
0.0
 10
517.4431
 20
52.4817
 30
0.0
 10
517.4431
 20
52.4817
 30
0.0
 10
517.4431
 20
52.4817
 30
0.0
 10
517.2116
 20
52.7133
 30
0.0
 10
517.2116
 20
52.7133
 30
0.0
 10
517.2116
 20
52.7133
 30
0.0
 10
517.2116
 20
52.7133
 30
0.0
 10
517.2116
 20
53.4156
 30
0.0
 10
517.2116
 20
53.4156
 30
0.0
 10
517.2116
 20
53.4156
 30
0.0
 10
517.2116
 20
53.4156
 30
0.0
 10
517.6747
 20
53.8787
 30
0.0
 10
517.6747
 20
53.8787
 30
0.0
 10
517.6747
 20
53.8787
 30
0.0
 10
517.6747
 20
53.8787
 30
0.0
 10
517.9064
 20
53.8787
 30
0.0
 10
517.9064
 20
53.8787
 30
0.0
  0
SPLINE
  5
27C
330
1F
100
AcDbEntity
  8
DEFPOINTS
 62
     5
370
    25
100
AcDbSpline
210
0.0
220
0.0
230
1.0
 70
    24
 71
     3
 72
     8
 73
     4
 74
     0
 42
0.0000000001
 43
0.0000000001
 40
0.0
 40
0.0
 40
0.0
 40
0.0
 40
1.0
 40
1.0
 40
1.0
 40
1.0
 10
518.6086
 20
53.4156
 30
0.0
 10
518.6086
 20
53.4156
 30
0.0
 10
518.8402
 20
53.8787
 30
0.0
 10
518.8402
 20
53.8787
 30
0.0
  0
SPLINE
  5
27D
330
1F
100
AcDbEntity
  8
DEFPOINTS
 62
     5
370
    25
100
AcDbSpline
210
0.0
220
0.0
230
1.0
 70
    24
 71
     3
 72
     8
 73
     4
 74
     0
 42
0.0000000001
 43
0.0000000001
 40
0.0
 40
0.0
 40
0.0
 40
0.0
 40
1.0
 40
1.0
 40
1.0
 40
1.0
 10
519.0718
 20
53.8787
 30
0.0
 10
519.0718
 20
53.8787
 30
0.0
 10
518.8402
 20
53.4156
 30
0.0
 10
518.8402
 20
53.4156
 30
0.0
  0
SPLINE
  5
27E
330
1F
100
AcDbEntity
  8
DEFPOINTS
 62
     5
370
    25
100
AcDbSpline
210
0.0
220
0.0
230
1.0
 70
    24
 71
     3
 72
     8
 73
     4
 74
     0
 42
0.0000000001
 43
0.0000000001
 40
0.0
 40
0.0
 40
0.0
 40
0.0
 40
1.0
 40
1.0
 40
1.0
 40
1.0
 10
520.4315
 20
65.959
 30
0.0
 10
520.4315
 20
65.959
 30
0.0
 10
520.4688
 20
65.959
 30
0.0
 10
520.4688
 20
65.959
 30
0.0
  0
SPLINE
  5
27F
330
1F
100
AcDbEntity
  8
DEFPOINTS
 62
     5
370
    25
100
AcDbSpline
210
0.0
220
0.0
230
1.0
 70
    24
 71
     3
 72
     8
 73
     4
 74
     0
 42
0.0000000001
 43
0.0000000001
 40
0.0
 40
0.0
 40
0.0
 40
0.0
 40
1.0
 40
1.0
 40
1.0
 40
1.0
 10
520.4315
 20
40.4014
 30
0.0
 10
520.4315
 20
40.4014
 30
0.0
 10
520.4688
 20
40.4014
 30
0.0
 10
520.4688
 20
40.4014
 30
0.0
  0
SPLINE
  5
280
330
1F
100
AcDbEntity
  8
DEFPOINTS
 62
     5
370
    25
100
AcDbSpline
210
0.0
220
0.0
230
1.0
 70
    24
 71
     3
 72
     8
 73
     4
 74
     0
 42
0.0000000001
 43
0.0000000001
 40
0.0
 40
0.0
 40
0.0
 40
0.0
 40
1.0
 40
1.0
 40
1.0
 40
1.0
 10
521.3055
 20
64.562
 30
0.0
 10
521.3055
 20
64.562
 30
0.0
 10
521.3055
 20
54.7155
 30
0.0
 10
521.3055
 20
54.7155
 30
0.0
  0
SPLINE
  5
281
330
1F
100
AcDbEntity
  8
DEFPOINTS
 62
     5
370
    25
100
AcDbSpline
210
0.0
220
0.0
230
1.0
 70
    24
 71
     3
 72
     8
 73
     4
 74
     0
 42
0.0000000001
 43
0.0000000001
 40
0.0
 40
0.0
 40
0.0
 40
0.0
 40
1.0
 40
1.0
 40
1.0
 40
1.0
 10
521.3055
 20
41.7985
 30
0.0
 10
521.3055
 20
41.7985
 30
0.0
 10
521.3055
 20
51.645
 30
0.0
 10
521.3055
 20
51.645
 30
0.0
  0
SPLINE
  5
282
330
1F
100
AcDbEntity
  8
DEFPOINTS
 62
     5
100
AcDbSpline
210
0.0
220
0.0
230
1.0
 70
    11
 71
     3
 72
    16
 73
    12
 74
     0
 42
0.0000000001
 43
0.0000000001
 40
0.0
 40
0.0
 40
0.0
 40
0.0
 40
0.3333333333333333
 40
0.3333333333333333
 40
0.3333333333333333
 40
0.3333333333333333
 40
0.6666666666666666
 40
0.6666666666666666
 40
0.6666666666666666
 40
0.6666666666666666
 40
1.0
 40
1.0
 40
1.0
 40
1.0
 10
521.0739
 20
64.562
 30
0.0
 10
521.0739
 20
64.562
 30
0.0
 10
521.5446
 20
64.562
 30
0.0
 10
521.5446
 20
64.562
 30
0.0
 10
521.5446
 20
64.562
 30
0.0
 10
521.5446
 20
64.562
 30
0.0
 10
521.3055
 20
65.959
 30
0.0
 10
521.3055
 20
65.959
 30
0.0
 10
521.3055
 20
65.959
 30
0.0
 10
521.3055
 20
65.959
 30
0.0
 10
521.0739
 20
64.562
 30
0.0
 10
521.0739
 20
64.562
 30
0.0
  0
SPLINE
  5
283
330
1F
100
AcDbEntity
  8
DEFPOINTS
 62
     5
100
AcDbSpline
210
0.0
220
0.0
230
1.0
 70
    11
 71
     3
 72
    16
 73
    12
 74
     0
 42
0.0000000001
 43
0.0000000001
 40
0.0
 40
0.0
 40
0.0
 40
0.0
 40
0.3333333333333333
 40
0.3333333333333333
 40
0.3333333333333333
 40
0.3333333333333333
 40
0.6666666666666666
 40
0.6666666666666666
 40
0.6666666666666666
 40
0.6666666666666666
 40
1.0
 40
1.0
 40
1.0
 40
1.0
 10
521.0739
 20
41.7985
 30
0.0
 10
521.0739
 20
41.7985
 30
0.0
 10
521.5446
 20
41.7985
 30
0.0
 10
521.5446
 20
41.7985
 30
0.0
 10
521.5446
 20
41.7985
 30
0.0
 10
521.5446
 20
41.7985
 30
0.0
 10
521.3055
 20
40.4014
 30
0.0
 10
521.3055
 20
40.4014
 30
0.0
 10
521.3055
 20
40.4014
 30
0.0
 10
521.3055
 20
40.4014
 30
0.0
 10
521.0739
 20
41.7985
 30
0.0
 10
521.0739
 20
41.7985
 30
0.0
  0
SPLINE
  5
284
330
1F
100
AcDbEntity
  8
DEFPOINTS
 62
     5
370
    25
100
AcDbSpline
210
0.0
220
0.0
230
1.0
 70
     8
 71
     3
 72
    40
 73
    36
 74
     0
 42
0.0000000001
 43
0.0000000001
 40
0.0
 40
0.0
 40
0.0
 40
0.0
 40
0.1111111111111111
 40
0.1111111111111111
 40
0.1111111111111111
 40
0.1111111111111111
 40
0.2222222222222222
 40
0.2222222222222222
 40
0.2222222222222222
 40
0.2222222222222222
 40
0.3333333333333333
 40
0.3333333333333333
 40
0.3333333333333333
 40
0.3333333333333333
 40
0.4444444444444444
 40
0.4444444444444444
 40
0.4444444444444444
 40
0.4444444444444444
 40
0.5555555555555556
 40
0.5555555555555556
 40
0.5555555555555556
 40
0.5555555555555556
 40
0.6666666666666667
 40
0.6666666666666667
 40
0.6666666666666667
 40
0.6666666666666667
 40
0.7777777777777779
 40
0.7777777777777779
 40
0.7777777777777779
 40
0.7777777777777779
 40
0.8888888888888891
 40
0.8888888888888891
 40
0.8888888888888891
 40
0.8888888888888891
 40
1.0
 40
1.0
 40
1.0
 40
1.0
 10
519.7964
 20
53.6471
 30
0.0
 10
519.7964
 20
53.6471
 30
0.0
 10
520.028
 20
53.8787
 30
0.0
 10
520.028
 20
53.8787
 30
0.0
 10
520.028
 20
53.8787
 30
0.0
 10
520.028
 20
53.8787
 30
0.0
 10
520.4912
 20
53.8787
 30
0.0
 10
520.4912
 20
53.8787
 30
0.0
 10
520.4912
 20
53.8787
 30
0.0
 10
520.4912
 20
53.8787
 30
0.0
 10
520.7228
 20
53.6471
 30
0.0
 10
520.7228
 20
53.6471
 30
0.0
 10
520.7228
 20
53.6471
 30
0.0
 10
520.7228
 20
53.6471
 30
0.0
 10
520.7228
 20
53.4156
 30
0.0
 10
520.7228
 20
53.4156
 30
0.0
 10
520.7228
 20
53.4156
 30
0.0
 10
520.7228
 20
53.4156
 30
0.0
 10
520.4912
 20
53.184
 30
0.0
 10
520.4912
 20
53.184
 30
0.0
 10
520.4912
 20
53.184
 30
0.0
 10
520.4912
 20
53.184
 30
0.0
 10
520.028
 20
53.184
 30
0.0
 10
520.028
 20
53.184
 30
0.0
 10
520.028
 20
53.184
 30
0.0
 10
520.028
 20
53.184
 30
0.0
 10
519.7964
 20
52.9524
 30
0.0
 10
519.7964
 20
52.9524
 30
0.0
 10
519.7964
 20
52.9524
 30
0.0
 10
519.7964
 20
52.9524
 30
0.0
 10
519.7964
 20
52.4817
 30
0.0
 10
519.7964
 20
52.4817
 30
0.0
 10
519.7964
 20
52.4817
 30
0.0
 10
519.7964
 20
52.4817
 30
0.0
 10
520.7228
 20
52.4817
 30
0.0
 10
520.7228
 20
52.4817
 30
0.0
  0
SPLINE
  5
285
330
1F
100
AcDbEntity
  8
DEFPOINTS
 62
     5
370
    25
100
AcDbSpline
210
0.0
220
0.0
230
1.0
 70
    11
 71
     3
 72
    36
 73
    32
 74
     0
 42
0.0000000001
 43
0.0000000001
 40
0.0
 40
0.0
 40
0.0
 40
0.0
 40
0.125
 40
0.125
 40
0.125
 40
0.125
 40
0.25
 40
0.25
 40
0.25
 40
0.25
 40
0.375
 40
0.375
 40
0.375
 40
0.375
 40
0.5
 40
0.5
 40
0.5
 40
0.5
 40
0.625
 40
0.625
 40
0.625
 40
0.625
 40
0.75
 40
0.75
 40
0.75
 40
0.75
 40
0.875
 40
0.875
 40
0.875
 40
0.875
 40
1.0
 40
1.0
 40
1.0
 40
1.0
 10
521.4251
 20
52.4817
 30
0.0
 10
521.4251
 20
52.4817
 30
0.0
 10
521.1935
 20
52.7133
 30
0.0
 10
521.1935
 20
52.7133
 30
0.0
 10
521.1935
 20
52.7133
 30
0.0
 10
521.1935
 20
52.7133
 30
0.0
 10
521.1935
 20
53.6471
 30
0.0
 10
521.1935
 20
53.6471
 30
0.0
 10
521.1935
 20
53.6471
 30
0.0
 10
521.1935
 20
53.6471
 30
0.0
 10
521.4251
 20
53.8787
 30
0.0
 10
521.4251
 20
53.8787
 30
0.0
 10
521.4251
 20
53.8787
 30
0.0
 10
521.4251
 20
53.8787
 30
0.0
 10
521.6567
 20
53.8787
 30
0.0
 10
521.6567
 20
53.8787
 30
0.0
 10
521.6567
 20
53.8787
 30
0.0
 10
521.6567
 20
53.8787
 30
0.0
 10
521.8883
 20
53.6471
 30
0.0
 10
521.8883
 20
53.6471
 30
0.0
 10
521.8883
 20
53.6471
 30
0.0
 10
521.8883
 20
53.6471
 30
0.0
 10
521.8883
 20
52.7133
 30
0.0
 10
521.8883
 20
52.7133
 30
0.0
 10
521.8883
 20
52.7133
 30
0.0
 10
521.8883
 20
52.7133
 30
0.0
 10
521.6567
 20
52.4817
 30
0.0
 10
521.6567
 20
52.4817
 30
0.0
 10
521.6567
 20
52.4817
 30
0.0
 10
521.6567
 20
52.4817
 30
0.0
 10
521.4251
 20
52.4817
 30
0.0
 10
521.4251
 20
52.4817
 30
0.0
  0
SPLINE
  5
286
330
1F
100
AcDbEntity
  8
DEFPOINTS
 62
     5
370
    25
100
AcDbSpline
210
0.0
220
0.0
230
1.0
 70
    24
 71
     3
 72
     8
 73
     4
 74
     0
 42
0.0000000001
 43
0.0000000001
 40
0.0
 40
0.0
 40
0.0
 40
0.0
 40
1.0
 40
1.0
 40
1.0
 40
1.0
 10
522.3589
 20
53.4156
 30
0.0
 10
522.3589
 20
53.4156
 30
0.0
 10
522.5905
 20
53.8787
 30
0.0
 10
522.5905
 20
53.8787
 30
0.0
  0
SPLINE
  5
287
330
1F
100
AcDbEntity
  8
DEFPOINTS
 62
     5
370
    25
100
AcDbSpline
210
0.0
220
0.0
230
1.0
 70
    24
 71
     3
 72
     8
 73
     4
 74
     0
 42
0.0000000001
 43
0.0000000001
 40
0.0
 40
0.0
 40
0.0
 40
0.0
 40
1.0
 40
1.0
 40
1.0
 40
1.0
 10
522.8221
 20
53.8787
 30
0.0
 10
522.8221
 20
53.8787
 30
0.0
 10
522.5905
 20
53.4156
 30
0.0
 10
522.5905
 20
53.4156
 30
0.0
  0
ENDSEC
  0
SECTION
  2
OBJECTS
  0
DICTIONARY
  5
C
330
0
100
AcDbDictionary
281
     1
  3
ACAD_GROUP
350
D
  3
ACAD_LAYOUT
350
1A
  3
ACAD_MLEADERSTYLE
350
289
  3
ACAD_MLINESTYLE
350
17
  3
ACAD_PLOTSETTINGS
350
19
  3
ACAD_PLOTSTYLENAME
350
E
  3
ACAD_SCALELIST
350
3B
  3
ACAD_TABLESTYLE
350
288
  3
ACAD_VISUALSTYLE
350
2A
  0
DICTIONARY
  5
D
102
{ACAD_REACTORS
330
C
102
}
330
C
100
AcDbDictionary
281
     1
  0
DICTIONARY
  5
1A
102
{ACAD_REACTORS
330
C
102
}
330
C
100
AcDbDictionary
281
     1
  3
Layout1
350
1E
  3
Layout2
350
26
  3
Model
350
22
  0
DICTIONARY
  5
289
102
{ACAD_REACTORS
330
C
102
}
330
C
100
AcDbDictionary
281
     1
  0
DICTIONARY
  5
17
102
{ACAD_REACTORS
330
C
102
}
330
C
100
AcDbDictionary
281
     1
  3
Standard
350
18
  0
DICTIONARY
  5
19
102
{ACAD_REACTORS
330
C
102
}
330
C
100
AcDbDictionary
281
     1
  0
ACDBDICTIONARYWDFLT
  5
E
102
{ACAD_REACTORS
330
C
102
}
330
C
100
AcDbDictionary
281
     1
  3
Normal
350
F
100
AcDbDictionaryWithDefault
340
F
  0
DICTIONARY
  5
3B
102
{ACAD_REACTORS
330
C
102
}
330
C
100
AcDbDictionary
281
     1
  3
A0
350
3C
  3
A1
350
3D
  3
A2
350
3E
  3
A3
350
3F
  3
A4
350
40
  3
A5
350
41
  3
A6
350
42
  3
A7
350
43
  3
A8
350
44
  3
A9
350
45
  3
B0
350
46
  3
B1
350
47
  3
B2
350
48
  3
B3
350
49
  3
B4
350
4A
  3
B5
350
4B
  3
B6
350
4C
  3
B7
350
4D
  3
B8
350
4E
  3
B9
350
4F
  3
C0
350
50
  3
C1
350
51
  3
C2
350
52
  3
C3
350
53
  3
C4
350
54
  3
C5
350
55
  3
C6
350
56
  3
C7
350
57
  3
C8
350
58
  3
C9
350
59
  3
D0
350
5A
  3
D1
350
5B
  3
D2
350
5C
  0
DICTIONARY
  5
288
102
{ACAD_REACTORS
330
C
102
}
330
C
100
AcDbDictionary
281
     1
  0
DICTIONARY
  5
2A
102
{ACAD_REACTORS
330
C
102
}
330
C
100
AcDbDictionary
281
     1
  3
2dWireframe
350
2F
  3
3D Hidden
350
31
  3
3dWireframe
350
30
  3
Basic
350
32
  3
Brighten
350
36
  3
ColorChange
350
3A
  3
Conceptual
350
34
  3
Dim
350
35
  3
Facepattern
350
39
  3
Flat
350
2B
  3
FlatWithEdges
350
2C
  3
Gouraud
350
2D
  3
GouraudWithEdges
350
2E
  3
Linepattern
350
38
  3
Realistic
350
33
  3
Thicken
350
37
  0
LAYOUT
  5
1E
102
{ACAD_REACTORS
330
1A
102
}
330
1A
100
AcDbPlotSettings
  1

  2
none_device
  4

  6

 40
0.0
 41
0.0
 42
0.0
 43
0.0
 44
0.0
 45
0.0
 46
0.0
 47
0.0
 48
0.0
 49
0.0
140
0.0
141
0.0
142
1.0
143
1.0
 70
   688
 72
     0
 73
     0
 74
     5
  7

 75
    16
 76
     0
 77
     2
 78
   300
147
1.0
148
0.0
149
0.0
100
AcDbLayout
  1
Layout1
 70
     1
 71
     1
 10
0.0
 20
0.0
 11
12.0
 21
9.0
 12
0.0
 22
0.0
 32
0.0
 14
1.000000000000000E+20
 24
1.000000000000000E+20
 34
1.000000000000000E+20
 15
-1.000000000000000E+20
 25
-1.000000000000000E+20
 35
-1.000000000000000E+20
146
0.0
 13
0.0
 23
0.0
 33
0.0
 16
1.0
 26
0.0
 36
0.0
 17
0.0
 27
1.0
 37
0.0
 76
     0
330
1B
  0
LAYOUT
  5
26
102
{ACAD_REACTORS
330
1A
102
}
330
1A
100
AcDbPlotSettings
  1

  2
none_device
  4

  6

 40
0.0
 41
0.0
 42
0.0
 43
0.0
 44
0.0
 45
0.0
 46
0.0
 47
0.0
 48
0.0
 49
0.0
140
0.0
141
0.0
142
1.0
143
1.0
 70
   688
 72
     0
 73
     0
 74
     5
  7

 75
    16
 76
     0
 77
     2
 78
   300
147
1.0
148
0.0
149
0.0
100
AcDbLayout
  1
Layout2
 70
     1
 71
     2
 10
0.0
 20
0.0
 11
0.0
 21
0.0
 12
0.0
 22
0.0
 32
0.0
 14
0.0
 24
0.0
 34
0.0
 15
0.0
 25
0.0
 35
0.0
146
0.0
 13
0.0
 23
0.0
 33
0.0
 16
1.0
 26
0.0
 36
0.0
 17
0.0
 27
1.0
 37
0.0
 76
     0
330
23
  0
LAYOUT
  5
22
102
{ACAD_REACTORS
330
1A
102
}
330
1A
100
AcDbPlotSettings
  1

  2
none_device
  4

  6

 40
0.0
 41
0.0
 42
0.0
 43
0.0
 44
0.0
 45
0.0
 46
0.0
 47
0.0
 48
0.0
 49
0.0
140
0.0
141
0.0
142
1.0
143
1.0
 70
  1712
 72
     0
 73
     0
 74
     0
  7

 75
     0
 76
     0
 77
     2
 78
   300
147
1.0
148
0.0
149
0.0
100
AcDbLayout
  1
Model
 70
     1
 71
     0
 10
0.0
 20
0.0
 11
12.0
 21
9.0
 12
0.0
 22
0.0
 32
0.0
 14
424.3238
 24
-8.57
 34
0.0
 15
587.2221
 25
103.5502
 35
0.0
146
0.0
 13
0.0
 23
0.0
 33
0.0
 16
1.0
 26
0.0
 36
0.0
 17
0.0
 27
1.0
 37
0.0
 76
     0
330
1F
331
29
  0
MLINESTYLE
  5
18
102
{ACAD_REACTORS
330
17
102
}
330
17
100
AcDbMlineStyle
  2
Standard
 70
     0
  3

 62
   256
 51
90.0
 52
90.0
 71
     2
 49
0.5
 62
   256
  6
BYLAYER
 49
-0.5
 62
   256
  6
BYLAYER
  0
ACDBPLACEHOLDER
  5
F
102
{ACAD_REACTORS
330
E
102
}
330
E
  0
SCALE
  5
3C
102
{ACAD_REACTORS
330
3B
102
}
330
3B
100
AcDbScale
 70
     0
300
1:1
140
1.0
141
1.0
290
     1
  0
SCALE
  5
3D
102
{ACAD_REACTORS
330
3B
102
}
330
3B
100
AcDbScale
 70
     0
300
1:2
140
1.0
141
2.0
290
     0
  0
SCALE
  5
3E
102
{ACAD_REACTORS
330
3B
102
}
330
3B
100
AcDbScale
 70
     0
300
1:4
140
1.0
141
4.0
290
     0
  0
SCALE
  5
3F
102
{ACAD_REACTORS
330
3B
102
}
330
3B
100
AcDbScale
 70
     0
300
1:5
140
1.0
141
5.0
290
     0
  0
SCALE
  5
40
102
{ACAD_REACTORS
330
3B
102
}
330
3B
100
AcDbScale
 70
     0
300
1:8
140
1.0
141
8.0
290
     0
  0
SCALE
  5
41
102
{ACAD_REACTORS
330
3B
102
}
330
3B
100
AcDbScale
 70
     0
300
1:10
140
1.0
141
10.0
290
     0
  0
SCALE
  5
42
102
{ACAD_REACTORS
330
3B
102
}
330
3B
100
AcDbScale
 70
     0
300
1:16
140
1.0
141
16.0
290
     0
  0
SCALE
  5
43
102
{ACAD_REACTORS
330
3B
102
}
330
3B
100
AcDbScale
 70
     0
300
1:20
140
1.0
141
20.0
290
     0
  0
SCALE
  5
44
102
{ACAD_REACTORS
330
3B
102
}
330
3B
100
AcDbScale
 70
     0
300
1:30
140
1.0
141
30.0
290
     0
  0
SCALE
  5
45
102
{ACAD_REACTORS
330
3B
102
}
330
3B
100
AcDbScale
 70
     0
300
1:40
140
1.0
141
40.0
290
     0
  0
SCALE
  5
46
102
{ACAD_REACTORS
330
3B
102
}
330
3B
100
AcDbScale
 70
     0
300
1:50
140
1.0
141
50.0
290
     0
  0
SCALE
  5
47
102
{ACAD_REACTORS
330
3B
102
}
330
3B
100
AcDbScale
 70
     0
300
1:100
140
1.0
141
100.0
290
     0
  0
SCALE
  5
48
102
{ACAD_REACTORS
330
3B
102
}
330
3B
100
AcDbScale
 70
     0
300
2:1
140
2.0
141
1.0
290
     0
  0
SCALE
  5
49
102
{ACAD_REACTORS
330
3B
102
}
330
3B
100
AcDbScale
 70
     0
300
4:1
140
4.0
141
1.0
290
     0
  0
SCALE
  5
4A
102
{ACAD_REACTORS
330
3B
102
}
330
3B
100
AcDbScale
 70
     0
300
8:1
140
8.0
141
1.0
290
     0
  0
SCALE
  5
4B
102
{ACAD_REACTORS
330
3B
102
}
330
3B
100
AcDbScale
 70
     0
300
10:1
140
10.0
141
1.0
290
     0
  0
SCALE
  5
4C
102
{ACAD_REACTORS
330
3B
102
}
330
3B
100
AcDbScale
 70
     0
300
100:1
140
100.0
141
1.0
290
     0
  0
SCALE
  5
4D
102
{ACAD_REACTORS
330
3B
102
}
330
3B
100
AcDbScale
 70
     0
300
1/128" = 1'-0"
140
0.0078125
141
12.0
290
     0
  0
SCALE
  5
4E
102
{ACAD_REACTORS
330
3B
102
}
330
3B
100
AcDbScale
 70
     0
300
1/64" = 1'-0"
140
0.015625
141
12.0
290
     0
  0
SCALE
  5
4F
102
{ACAD_REACTORS
330
3B
102
}
330
3B
100
AcDbScale
 70
     0
300
1/32" = 1'-0"
140
0.03125
141
12.0
290
     0
  0
SCALE
  5
50
102
{ACAD_REACTORS
330
3B
102
}
330
3B
100
AcDbScale
 70
     0
300
1/16" = 1'-0"
140
0.0625
141
12.0
290
     0
  0
SCALE
  5
51
102
{ACAD_REACTORS
330
3B
102
}
330
3B
100
AcDbScale
 70
     0
300
3/32" = 1'-0"
140
0.09375
141
12.0
290
     0
  0
SCALE
  5
52
102
{ACAD_REACTORS
330
3B
102
}
330
3B
100
AcDbScale
 70
     0
300
1/8" = 1'-0"
140
0.125
141
12.0
290
     0
  0
SCALE
  5
53
102
{ACAD_REACTORS
330
3B
102
}
330
3B
100
AcDbScale
 70
     0
300
3/16" = 1'-0"
140
0.1875
141
12.0
290
     0
  0
SCALE
  5
54
102
{ACAD_REACTORS
330
3B
102
}
330
3B
100
AcDbScale
 70
     0
300
1/4" = 1'-0"
140
0.25
141
12.0
290
     0
  0
SCALE
  5
55
102
{ACAD_REACTORS
330
3B
102
}
330
3B
100
AcDbScale
 70
     0
300
3/8" = 1'-0"
140
0.375
141
12.0
290
     0
  0
SCALE
  5
56
102
{ACAD_REACTORS
330
3B
102
}
330
3B
100
AcDbScale
 70
     0
300
1/2" = 1'-0"
140
0.5
141
12.0
290
     0
  0
SCALE
  5
57
102
{ACAD_REACTORS
330
3B
102
}
330
3B
100
AcDbScale
 70
     0
300
3/4" = 1'-0"
140
0.75
141
12.0
290
     0
  0
SCALE
  5
58
102
{ACAD_REACTORS
330
3B
102
}
330
3B
100
AcDbScale
 70
     0
300
1" = 1'-0"
140
1.0
141
12.0
290
     0
  0
SCALE
  5
59
102
{ACAD_REACTORS
330
3B
102
}
330
3B
100
AcDbScale
 70
     0
300
1-1/2" = 1'-0"
140
1.5
141
12.0
290
     0
  0
SCALE
  5
5A
102
{ACAD_REACTORS
330
3B
102
}
330
3B
100
AcDbScale
 70
     0
300
3" = 1'-0"
140
3.0
141
12.0
290
     0
  0
SCALE
  5
5B
102
{ACAD_REACTORS
330
3B
102
}
330
3B
100
AcDbScale
 70
     0
300
6" = 1'-0"
140
6.0
141
12.0
290
     0
  0
SCALE
  5
5C
102
{ACAD_REACTORS
330
3B
102
}
330
3B
100
AcDbScale
 70
     0
300
1'-0" = 1'-0"
140
12.0
141
12.0
290
     0
  0
VISUALSTYLE
  5
2F
102
{ACAD_REACTORS
330
2A
102
}
330
2A
100
AcDbVisualStyle
  2
2dWireframe
 70
     4
 71
     0
 72
     2
 73
     0
 90
        0
 40
-0.6
 41
-30.0
 62
     5
 63
     7
421
 16777215
 74
     1
 91
        4
 64
     7
 65
   257
 75
     1
175
     1
 42
1.0
 92
        0
 66
   257
 43
1.0
 76
     1
 77
     6
 78
     2
 67
     7
 79
     5
170
     0
171
     0
290
     0
174
     0
 93
        1
 44
0.0
173
     0
291
     0
 45
0.0
1001
ACAD
1000
AcDbSavedByObjectVersion
1070
     0
  0
VISUALSTYLE
  5
31
102
{ACAD_REACTORS
330
2A
102
}
330
2A
100
AcDbVisualStyle
  2
3D Hidden
 70
     6
 71
     1
 72
     2
 73
     2
 90
        0
 40
-0.6
 41
-30.0
 62
     5
 63
     7
421
 16777215
 74
     2
 91
        2
 64
     7
 65
   257
 75
     2
175
     1
 42
40.0
 92
        0
 66
   257
 43
1.0
 76
     1
 77
     6
 78
     2
 67
     7
 79
     3
170
     0
171
     0
290
     0
174
     0
 93
        1
 44
0.0
173
     0
291
     0
 45
0.0
1001
ACAD
1000
AcDbSavedByObjectVersion
1070
     0
  0
VISUALSTYLE
  5
30
102
{ACAD_REACTORS
330
2A
102
}
330
2A
100
AcDbVisualStyle
  2
3dWireframe
 70
     5
 71
     0
 72
     2
 73
     0
 90
        0
 40
-0.6
 41
-30.0
 62
     5
 63
     7
421
 16777215
 74
     1
 91
        4
 64
     7
 65
   257
 75
     1
175
     1
 42
1.0
 92
        0
 66
   257
 43
1.0
 76
     1
 77
     6
 78
     2
 67
     7
 79
     5
170
     0
171
     0
290
     0
174
     0
 93
        1
 44
0.0
173
     0
291
     0
 45
0.0
1001
ACAD
1000
AcDbSavedByObjectVersion
1070
     0
  0
VISUALSTYLE
  5
32
102
{ACAD_REACTORS
330
2A
102
}
330
2A
100
AcDbVisualStyle
  2
Basic
 70
     7
 71
     1
 72
     0
 73
     1
 90
        0
 40
-0.6
 41
-30.0
 62
     5
 63
     7
421
 16777215
 74
     0
 91
        4
 64
     7
 65
   257
 75
     1
175
     1
 42
1.0
 92
        8
 66
     7
 43
1.0
 76
     1
 77
     6
 78
     2
 67
     7
 79
     5
170
     0
171
     0
290
     0
174
     0
 93
        1
 44
0.0
173
     0
291
     1
 45
0.0
1001
ACAD
1000
AcDbSavedByObjectVersion
1070
     0
  0
VISUALSTYLE
  5
36
102
{ACAD_REACTORS
330
2A
102
}
330
2A
100
AcDbVisualStyle
  2
Brighten
 70
    12
 71
     2
 72
     2
 73
     0
 90
        0
 40
-0.6
 41
-30.0
 62
     5
 63
     7
421
 16777215
 74
     1
 91
        4
 64
     7
 65
   257
 75
     1
175
     1
 42
1.0
 92
        8
 66
     7
 43
1.0
 76
     1
 77
     6
 78
     2
 67
     7
 79
     5
170
     0
171
     0
290
     0
174
     0
 93
        1
 44
50.0
173
     0
291
     1
 45
0.0
1001
ACAD
1000
AcDbSavedByObjectVersion
1070
     0
  0
VISUALSTYLE
  5
3A
102
{ACAD_REACTORS
330
2A
102
}
330
2A
100
AcDbVisualStyle
  2
ColorChange
 70
    16
 71
     2
 72
     2
 73
     3
 90
        0
 40
-0.6
 41
-30.0
 62
     5
 63
     8
421
  8421504
 74
     1
 91
        4
 64
     7
 65
   257
 75
     1
175
     1
 42
1.0
 92
        8
 66
     8
424
  8421504
 43
1.0
 76
     1
 77
     6
 78
     2
 67
     7
 79
     5
170
     0
171
     0
290
     0
174
     0
 93
        1
 44
0.0
173
     0
291
     1
 45
0.0
1001
ACAD
1000
AcDbSavedByObjectVersion
1070
     0
  0
VISUALSTYLE
  5
34
102
{ACAD_REACTORS
330
2A
102
}
330
2A
100
AcDbVisualStyle
  2
Conceptual
 70
     9
 71
     3
 72
     2
 73
     0
 90
        0
 40
-0.6
 41
-30.0
 62
     5
 63
     7
421
 16777215
 74
     2
 91
        2
 64
     7
 65
   257
 75
     1
175
     1
 42
40.0
 92
        8
 66
     7
 43
1.0
 76
     1
 77
     6
 78
     2
 67
     7
 79
     3
170
     0
171
     0
290
     0
174
     0
 93
        1
 44
0.0
173
     0
291
     0
 45
0.0
1001
ACAD
1000
AcDbSavedByObjectVersion
1070
     0
  0
VISUALSTYLE
  5
35
102
{ACAD_REACTORS
330
2A
102
}
330
2A
100
AcDbVisualStyle
  2
Dim
 70
    11
 71
     2
 72
     2
 73
     0
 90
        0
 40
-0.6
 41
-30.0
 62
     5
 63
     7
421
 16777215
 74
     1
 91
        4
 64
     7
 65
   257
 75
     1
175
     1
 42
1.0
 92
        8
 66
     7
 43
1.0
 76
     1
 77
     6
 78
     2
 67
     7
 79
     5
170
     0
171
     0
290
     0
174
     0
 93
        1
 44
-50.0
173
     0
291
     1
 45
0.0
1001
ACAD
1000
AcDbSavedByObjectVersion
1070
     0
  0
VISUALSTYLE
  5
39
102
{ACAD_REACTORS
330
2A
102
}
330
2A
100
AcDbVisualStyle
  2
Facepattern
 70
    15
 71
     2
 72
     2
 73
     0
 90
        0
 40
-0.6
 41
-30.0
 62
     5
 63
     7
421
 16777215
 74
     1
 91
        4
 64
     7
 65
   257
 75
     1
175
     1
 42
1.0
 92
        8
 66
     7
 43
1.0
 76
     1
 77
     6
 78
     2
 67
     7
 79
     5
170
     0
171
     0
290
     0
174
     0
 93
        1
 44
0.0
173
     0
291
     1
 45
0.0
1001
ACAD
1000
AcDbSavedByObjectVersion
1070
     0
  0
VISUALSTYLE
  5
2B
102
{ACAD_REACTORS
330
2A
102
}
330
2A
100
AcDbVisualStyle
  2
Flat
 70
     0
 71
     2
 72
     1
 73
     1
 90
        2
 40
-0.6
 41
30.0
 62
     5
 63
     7
421
 16777215
 74
     0
 91
        4
 64
     7
 65
   257
 75
     1
175
     1
 42
1.0
 92
        8
 66
     7
 43
1.0
 76
     1
 77
     6
 78
     2
 67
     7
 79
     5
170
     0
171
     0
290
     0
174
     0
 93
       13
 44
0.0
173
     0
291
     1
 45
0.0
1001
ACAD
1000
AcDbSavedByObjectVersion
1070
     0
  0
VISUALSTYLE
  5
2C
102
{ACAD_REACTORS
330
2A
102
}
330
2A
100
AcDbVisualStyle
  2
FlatWithEdges
 70
     1
 71
     2
 72
     1
 73
     1
 90
        2
 40
-0.6
 41
30.0
 62
     5
 63
     7
421
 16777215
 74
     1
 91
        4
 64
     7
 65
   257
 75
     1
175
     1
 42
1.0
 92
        0
 66
   257
 43
1.0
 76
     1
 77
     6
 78
     2
 67
     7
 79
     5
170
     0
171
     0
290
     0
174
     0
 93
       13
 44
0.0
173
     0
291
     1
 45
0.0
1001
ACAD
1000
AcDbSavedByObjectVersion
1070
     0
  0
VISUALSTYLE
  5
2D
102
{ACAD_REACTORS
330
2A
102
}
330
2A
100
AcDbVisualStyle
  2
Gouraud
 70
     2
 71
     2
 72
     2
 73
     1
 90
        2
 40
-0.6
 41
30.0
 62
     5
 63
     7
421
 16777215
 74
     0
 91
        4
 64
     7
 65
   257
 75
     1
175
     1
 42
1.0
 92
        0
 66
     7
 43
1.0
 76
     1
 77
     6
 78
     2
 67
     7
 79
     5
170
     0
171
     0
290
     0
174
     0
 93
       13
 44
0.0
173
     0
291
     1
 45
0.0
1001
ACAD
1000
AcDbSavedByObjectVersion
1070
     0
  0
VISUALSTYLE
  5
2E
102
{ACAD_REACTORS
330
2A
102
}
330
2A
100
AcDbVisualStyle
  2
GouraudWithEdges
 70
     3
 71
     2
 72
     2
 73
     1
 90
        2
 40
-0.6
 41
30.0
 62
     5
 63
     7
421
 16777215
 74
     1
 91
        4
 64
     7
 65
   257
 75
     1
175
     1
 42
1.0
 92
        0
 66
   257
 43
1.0
 76
     1
 77
     6
 78
     2
 67
     7
 79
     5
170
     0
171
     0
290
     0
174
     0
 93
       13
 44
0.0
173
     0
291
     1
 45
0.0
1001
ACAD
1000
AcDbSavedByObjectVersion
1070
     0
  0
VISUALSTYLE
  5
38
102
{ACAD_REACTORS
330
2A
102
}
330
2A
100
AcDbVisualStyle
  2
Linepattern
 70
    14
 71
     2
 72
     2
 73
     0
 90
        0
 40
-0.6
 41
-30.0
 62
     5
 63
     7
421
 16777215
 74
     1
 91
        4
 64
     7
 65
   257
 75
     7
175
     7
 42
1.0
 92
        8
 66
     7
 43
1.0
 76
     1
 77
     6
 78
     2
 67
     7
 79
     5
170
     0
171
     0
290
     0
174
     0
 93
        1
 44
0.0
173
     0
291
     1
 45
0.0
1001
ACAD
1000
AcDbSavedByObjectVersion
1070
     0
  0
VISUALSTYLE
  5
33
102
{ACAD_REACTORS
330
2A
102
}
330
2A
100
AcDbVisualStyle
  2
Realistic
 70
     8
 71
     2
 72
     2
 73
     0
 90
        0
 40
-0.6
 41
-30.0
 62
     5
 63
     7
421
 16777215
 74
     1
 91
        0
 64
     7
 65
   257
 75
     1
175
     1
 42
1.0
 92
        8
 66
     8
424
  7895160
 43
1.0
 76
     1
 77
     6
 78
     2
 67
     7
 79
     5
170
     0
171
     0
290
     0
174
     0
 93
       13
 44
0.0
173
     0
291
     0
 45
0.0
1001
ACAD
1000
AcDbSavedByObjectVersion
1070
     0
  0
VISUALSTYLE
  5
37
102
{ACAD_REACTORS
330
2A
102
}
330
2A
100
AcDbVisualStyle
  2
Thicken
 70
    13
 71
     2
 72
     2
 73
     0
 90
        0
 40
-0.6
 41
-30.0
 62
     5
 63
     7
421
 16777215
 74
     1
 91
        4
 64
     7
 65
   257
 75
     1
175
     1
 42
1.0
 92
       12
 66
     7
 43
1.0
 76
     1
 77
     6
 78
     2
 67
     7
 79
     5
170
     0
171
     0
290
     0
174
     0
 93
        1
 44
0.0
173
     0
291
     1
 45
0.0
1001
ACAD
1000
AcDbSavedByObjectVersion
1070
     0
  0
ENDSEC
  0
EOF
