  0
SECTION
  2
HEADER
  9
$ACADVER
  1
AC1018
  9
$ACADMAINTVER
 70
     0
  9
$DWGCODEPAGE
  3
ANSI_936
  9
$INSBASE
 10
0.0
 20
0.0
 30
0.0
  9
$EXTMIN
 10
168.6749
 20
136.3657
 30
0.0
  9
$EXTMAX
 10
334.1344
 20
259.7017
 30
0.0
  9
$LIMMIN
 10
0.0
 20
0.0
  9
$LIMMAX
 10
12.0
 20
9.0
  9
$ORTHOMODE
 70
     0
  9
$REGENMODE
 70
     1
  9
$FILLMODE
 70
     1
  9
$QTEXTMODE
 70
     0
  9
$MIRRTEXT
 70
     1
  9
$LTSCALE
 40
1.0
  9
$ATTMODE
 70
     1
  9
$TEXTSIZE
 40
0.2
  9
$TRACEWID
 40
0.05
  9
$TEXTSTYLE
  7
Standard
  9
$CLAYER
  8
0
  9
$CELTYPE
  6
ByLayer
  9
$CECOLOR
 62
   256
  9
$CELTSCALE
 40
1.0
  9
$DISPSILH
 70
     0
  9
$DIMSCALE
 40
1.0
  9
$DIMASZ
 40
0.18
  9
$DIMEXO
 40
0.0625
  9
$DIMDLI
 40
0.38
  9
$DIMRND
 40
0.0
  9
$DIMDLE
 40
0.0
  9
$DIMEXE
 40
0.18
  9
$DIMTP
 40
0.0
  9
$DIMTM
 40
0.0
  9
$DIMTXT
 40
0.18
  9
$DIMCEN
 40
0.09
  9
$DIMTSZ
 40
0.0
  9
$DIMTOL
 70
     0
  9
$DIMLIM
 70
     0
  9
$DIMTIH
 70
     1
  9
$DIMTOH
 70
     1
  9
$DIMSE1
 70
     0
  9
$DIMSE2
 70
     0
  9
$DIMTAD
 70
     0
  9
$DIMZIN
 70
     0
  9
$DIMBLK
  1

  9
$DIMASO
 70
     1
  9
$DIMSHO
 70
     1
  9
$DIMPOST
  1

  9
$DIMAPOST
  1

  9
$DIMALT
 70
     0
  9
$DIMALTD
 70
     2
  9
$DIMALTF
 40
25.4
  9
$DIMLFAC
 40
1.0
  9
$DIMTOFL
 70
     0
  9
$DIMTVP
 40
0.0
  9
$DIMTIX
 70
     0
  9
$DIMSOXD
 70
     0
  9
$DIMSAH
 70
     0
  9
$DIMBLK1
  1

  9
$DIMBLK2
  1

  9
$DIMSTYLE
  2
Standard
  9
$DIMCLRD
 70
     0
  9
$DIMCLRE
 70
     0
  9
$DIMCLRT
 70
     0
  9
$DIMTFAC
 40
1.0
  9
$DIMGAP
 40
0.09
  9
$DIMJUST
 70
     0
  9
$DIMSD1
 70
     0
  9
$DIMSD2
 70
     0
  9
$DIMTOLJ
 70
     1
  9
$DIMTZIN
 70
     0
  9
$DIMALTZ
 70
     0
  9
$DIMALTTZ
 70
     0
  9
$DIMUPT
 70
     0
  9
$DIMDEC
 70
     4
  9
$DIMTDEC
 70
     4
  9
$DIMALTU
 70
     2
  9
$DIMALTTD
 70
     2
  9
$DIMTXSTY
  7
Standard
  9
$DIMAUNIT
 70
     0
  9
$DIMADEC
 70
     0
  9
$DIMALTRND
 40
0.0
  9
$DIMAZIN
 70
     0
  9
$DIMDSEP
 70
    46
  9
$DIMATFIT
 70
     3
  9
$DIMFRAC
 70
     0
  9
$DIMLDRBLK
  1

  9
$DIMLUNIT
 70
     2
  9
$DIMLWD
 70
    -2
  9
$DIMLWE
 70
    -2
  9
$DIMTMOVE
 70
     0
  9
$LUNITS
 70
     2
  9
$LUPREC
 70
     4
  9
$SKETCHINC
 40
0.1
  9
$FILLETRAD
 40
0.5
  9
$AUNITS
 70
     0
  9
$AUPREC
 70
     0
  9
$MENU
  1
.
  9
$ELEVATION
 40
0.0
  9
$PELEVATION
 40
0.0
  9
$THICKNESS
 40
0.0
  9
$LIMCHECK
 70
     0
  9
$CHAMFERA
 40
0.5
  9
$CHAMFERB
 40
0.5
  9
$CHAMFERC
 40
1.0
  9
$CHAMFERD
 40
0.0
  9
$SKPOLY
 70
     0
  9
$TDCREATE
 40
2457364.625383206
  9
$TDUCREATE
 40
2457364.292049873
  9
$TDUPDATE
 40
2457364.625383218
  9
$TDUUPDATE
 40
2457364.292049884
  9
$TDINDWG
 40
0.0000000116
  9
$TDUSRTIMER
 40
0.0000000116
  9
$USRTIMER
 70
     1
  9
$ANGBASE
 50
0.0
  9
$ANGDIR
 70
     0
  9
$PDMODE
 70
     0
  9
$PDSIZE
 40
0.0
  9
$PLINEWID
 40
0.0
  9
$SPLFRAME
 70
     0
  9
$SPLINETYPE
 70
     6
  9
$SPLINESEGS
 70
     8
  9
$HANDSEED
  5
256
  9
$SURFTAB1
 70
     6
  9
$SURFTAB2
 70
     6
  9
$SURFTYPE
 70
     6
  9
$SURFU
 70
     6
  9
$SURFV
 70
     6
  9
$UCSBASE
  2

  9
$UCSNAME
  2

  9
$UCSORG
 10
0.0
 20
0.0
 30
0.0
  9
$UCSXDIR
 10
1.0
 20
0.0
 30
0.0
  9
$UCSYDIR
 10
0.0
 20
1.0
 30
0.0
  9
$UCSORTHOREF
  2

  9
$UCSORTHOVIEW
 70
     0
  9
$UCSORGTOP
 10
0.0
 20
0.0
 30
0.0
  9
$UCSORGBOTTOM
 10
0.0
 20
0.0
 30
0.0
  9
$UCSORGLEFT
 10
0.0
 20
0.0
 30
0.0
  9
$UCSORGRIGHT
 10
0.0
 20
0.0
 30
0.0
  9
$UCSORGFRONT
 10
0.0
 20
0.0
 30
0.0
  9
$UCSORGBACK
 10
0.0
 20
0.0
 30
0.0
  9
$PUCSBASE
  2

  9
$PUCSNAME
  2

  9
$PUCSORG
 10
0.0
 20
0.0
 30
0.0
  9
$PUCSXDIR
 10
1.0
 20
0.0
 30
0.0
  9
$PUCSYDIR
 10
0.0
 20
1.0
 30
0.0
  9
$PUCSORTHOREF
  2

  9
$PUCSORTHOVIEW
 70
     0
  9
$PUCSORGTOP
 10
0.0
 20
0.0
 30
0.0
  9
$PUCSORGBOTTOM
 10
0.0
 20
0.0
 30
0.0
  9
$PUCSORGLEFT
 10
0.0
 20
0.0
 30
0.0
  9
$PUCSORGRIGHT
 10
0.0
 20
0.0
 30
0.0
  9
$PUCSORGFRONT
 10
0.0
 20
0.0
 30
0.0
  9
$PUCSORGBACK
 10
0.0
 20
0.0
 30
0.0
  9
$USERI1
 70
     0
  9
$USERI2
 70
     0
  9
$USERI3
 70
     0
  9
$USERI4
 70
     0
  9
$USERI5
 70
     0
  9
$USERR1
 40
0.0
  9
$USERR2
 40
0.0
  9
$USERR3
 40
0.0
  9
$USERR4
 40
0.0
  9
$USERR5
 40
0.0
  9
$WORLDVIEW
 70
     1
  9
$SHADEDGE
 70
     3
  9
$SHADEDIF
 70
    70
  9
$TILEMODE
 70
     1
  9
$MAXACTVP
 70
    64
  9
$PINSBASE
 10
0.0
 20
0.0
 30
0.0
  9
$PLIMCHECK
 70
     0
  9
$PEXTMIN
 10
1.000000000000000E+20
 20
1.000000000000000E+20
 30
1.000000000000000E+20
  9
$PEXTMAX
 10
-1.000000000000000E+20
 20
-1.000000000000000E+20
 30
-1.000000000000000E+20
  9
$PLIMMIN
 10
0.0
 20
0.0
  9
$PLIMMAX
 10
12.0
 20
9.0
  9
$UNITMODE
 70
     0
  9
$VISRETAIN
 70
     1
  9
$PLINEGEN
 70
     0
  9
$PSLTSCALE
 70
     1
  9
$TREEDEPTH
 70
  3020
  9
$CMLSTYLE
  2
Standard
  9
$CMLJUST
 70
     0
  9
$CMLSCALE
 40
1.0
  9
$PROXYGRAPHICS
 70
     1
  9
$MEASUREMENT
 70
     0
  9
$CELWEIGHT
370
    -1
  9
$ENDCAPS
280
     0
  9
$JOINSTYLE
280
     0
  9
$LWDISPLAY
290
     0
  9
$INSUNITS
 70
     4
  9
$HYPERLINKBASE
  1

  9
$STYLESHEET
  1

  9
$XEDIT
290
     1
  9
$CEPSNTYPE
380
     0
  9
$PSTYLEMODE
290
     1
  9
$FINGERPRINTGUID
  2
{BFF5F4A3-6380-4F49-9154-C938B77D8BD3}
  9
$VERSIONGUID
  2
{FAEB1C32-E019-11D5-929B-00C0DF256EC4}
  9
$EXTNAMES
290
     1
  9
$PSVPSCALE
 40
0.0
  9
$OLESTARTUP
290
     0
  9
$SORTENTS
280
   127
  9
$INDEXCTL
280
     0
  9
$HIDETEXT
280
     1
  9
$XCLIPFRAME
290
     0
  9
$HALOGAP
280
     0
  9
$OBSCOLOR
 70
   257
  9
$OBSLTYPE
280
     0
  9
$INTERSECTIONDISPLAY
280
     0
  9
$INTERSECTIONCOLOR
 70
   257
  9
$DIMASSOC
280
     2
  9
$PROJECTNAME
  1

  0
ENDSEC
  0
SECTION
  2
CLASSES
  0
CLASS
  1
ACDBDICTIONARYWDFLT
  2
AcDbDictionaryWithDefault
  3
ObjectDBX Classes
 90
        0
 91
        3
280
     0
281
     0
  0
CLASS
  1
VISUALSTYLE
  2
AcDbVisualStyle
  3
ObjectDBX Classes
 90
     4095
 91
        3
280
     0
281
     0
  0
CLASS
  1
SCALE
  2
AcDbScale
  3
ObjectDBX Classes
 90
     1153
 91
        3
280
     0
281
     0
  0
ENDSEC
  0
SECTION
  2
TABLES
  0
TABLE
  2
VPORT
  5
8
330
0
100
AcDbSymbolTable
 70
     1
  0
VPORT
  5
29
330
8
100
AcDbSymbolTableRecord
100
AcDbViewportTableRecord
  2
*Active
 70
     0
 10
0.0
 20
0.0
 11
1.0
 21
1.0
 12
10.42990654205607
 22
4.5
 13
0.0
 23
0.0
 14
0.5
 24
0.5
 15
0.5
 25
0.5
 16
0.0
 26
0.0
 36
1.0
 17
0.0
 27
0.0
 37
0.0
 40
9.0
 41
1.972972972850329
 42
50.0
 43
0.0
 44
0.0
 50
0.0
 51
0.0
 71
     0
 72
   100
 73
     1
 74
     3
 75
     0
 76
     0
 77
     0
 78
     0
281
     0
 65
     1
110
0.0
120
0.0
130
0.0
111
1.0
121
0.0
131
0.0
112
0.0
122
1.0
132
0.0
 79
     0
146
0.0
  0
ENDTAB
  0
TABLE
  2
LTYPE
  5
5
330
0
100
AcDbSymbolTable
 70
     1
  0
LTYPE
  5
14
330
5
100
AcDbSymbolTableRecord
100
AcDbLinetypeTableRecord
  2
ByBlock
 70
     0
  3

 72
    65
 73
     0
 40
0.0
  0
LTYPE
  5
15
330
5
100
AcDbSymbolTableRecord
100
AcDbLinetypeTableRecord
  2
ByLayer
 70
     0
  3

 72
    65
 73
     0
 40
0.0
  0
LTYPE
  5
16
330
5
100
AcDbSymbolTableRecord
100
AcDbLinetypeTableRecord
  2
Continuous
 70
     0
  3
Solid line
 72
    65
 73
     0
 40
0.0
  0
ENDTAB
  0
TABLE
  2
LAYER
  5
2
330
0
100
AcDbSymbolTable
 70
     3
  0
LAYER
  5
10
330
2
100
AcDbSymbolTableRecord
100
AcDbLayerTableRecord
  2
0
 70
     0
 62
     7
  6
Continuous
370
    -3
390
F
  0
LAYER
  5
5E
330
2
100
AcDbSymbolTableRecord
100
AcDbLayerTableRecord
  2
layer 1
 70
     0
 62
     7
  6
Continuous
370
    -3
390
F
  0
LAYER
  5
63
330
2
100
AcDbSymbolTableRecord
100
AcDbLayerTableRecord
  2
DEFPOINTS
 70
     0
 62
     7
  6
Continuous
290
     0
370
    -3
390
F
  0
ENDTAB
  0
TABLE
  2
STYLE
  5
3
330
0
100
AcDbSymbolTable
 70
     7
  0
STYLE
  5
11
330
3
100
AcDbSymbolTableRecord
100
AcDbTextStyleTableRecord
  2
Standard
 70
     0
 40
0.0
 41
1.0
 50
0.0
 71
     0
 42
0.2
  3
txt
  4

  0
STYLE
  5
64
330
3
100
AcDbSymbolTableRecord
100
AcDbTextStyleTableRecord
  2
0
 70
     0
 40
1.0
 41
1.0
 50
0.0
 71
     0
 42
1.0
  3
Times New Roman
  4

1001
ACAD
1000
Times New Roman
1071
       18
  0
STYLE
  5
66
330
3
100
AcDbSymbolTableRecord
100
AcDbTextStyleTableRecord
  2
1
 70
     0
 40
1.0
 41
1.0
 50
0.0
 71
     0
 42
1.0
  3
Times New Roman
  4

1001
ACAD
1000
Times New Roman
1071
       18
  0
STYLE
  5
68
330
3
100
AcDbSymbolTableRecord
100
AcDbTextStyleTableRecord
  2
2
 70
     0
 40
1.0
 41
1.0
 50
0.0
 71
     0
 42
1.0
  3
Times New Roman
  4

1001
ACAD
1000
Times New Roman
1071
       18
  0
STYLE
  5
6C
330
3
100
AcDbSymbolTableRecord
100
AcDbTextStyleTableRecord
  2
3
 70
     0
 40
1.0
 41
1.0
 50
0.0
 71
     0
 42
1.0
  3
Times New Roman
  4

1001
ACAD
1000
Times New Roman
1071
       18
  0
STYLE
  5
6F
330
3
100
AcDbSymbolTableRecord
100
AcDbTextStyleTableRecord
  2
4
 70
     0
 40
1.0
 41
1.0
 50
0.0
 71
     0
 42
1.0
  3
Arial
  4

1001
ACAD
1000
Arial
1071
       34
  0
STYLE
  5
72
330
3
100
AcDbSymbolTableRecord
100
AcDbTextStyleTableRecord
  2
5
 70
     0
 40
1.0
 41
1.0
 50
0.0
 71
     0
 42
1.0
  3
txt.shx
  4

1001
ACAD
1000
txt.shx
1071
    34306
  0
ENDTAB
  0
TABLE
  2
VIEW
  5
6
330
0
100
AcDbSymbolTable
 70
     0
  0
ENDTAB
  0
TABLE
  2
UCS
  5
7
330
0
100
AcDbSymbolTable
 70
     0
  0
ENDTAB
  0
TABLE
  2
APPID
  5
9
330
0
100
AcDbSymbolTable
 70
     2
  0
APPID
  5
12
330
9
100
AcDbSymbolTableRecord
100
AcDbRegAppTableRecord
  2
ACAD
 70
     0
  0
APPID
  5
5D
330
9
100
AcDbSymbolTableRecord
100
AcDbRegAppTableRecord
  2
ODA
 70
     0
  0
ENDTAB
  0
TABLE
  2
DIMSTYLE
  5
A
330
0
100
AcDbSymbolTable
 70
     1
100
AcDbDimStyleTable
  0
DIMSTYLE
105
27
330
A
100
AcDbSymbolTableRecord
100
AcDbDimStyleTableRecord
  2
Standard
 70
     0
340
11
  0
ENDTAB
  0
TABLE
  2
BLOCK_RECORD
  5
1
330
0
100
AcDbSymbolTable
 70
     1
  0
BLOCK_RECORD
  5
1F
330
1
100
AcDbSymbolTableRecord
100
AcDbBlockTableRecord
  2
*Model_Space
340
22
  0
BLOCK_RECORD
  5
1B
330
1
100
AcDbSymbolTableRecord
100
AcDbBlockTableRecord
  2
*Paper_Space
340
1E
  0
BLOCK_RECORD
  5
23
330
1
100
AcDbSymbolTableRecord
100
AcDbBlockTableRecord
  2
*Paper_Space0
340
26
  0
ENDTAB
  0
ENDSEC
  0
SECTION
  2
BLOCKS
  0
BLOCK
  5
20
330
1F
100
AcDbEntity
  8
0
100
AcDbBlockBegin
  2
*Model_Space
 70
     0
 10
0.0
 20
0.0
 30
0.0
  3
*Model_Space
  1

  0
ENDBLK
  5
21
330
1F
100
AcDbEntity
  8
0
100
AcDbBlockEnd
  0
BLOCK
  5
1C
330
1B
100
AcDbEntity
 67
     1
  8
0
100
AcDbBlockBegin
  2
*Paper_Space
 70
     0
 10
0.0
 20
0.0
 30
0.0
  3
*Paper_Space
  1

  0
ENDBLK
  5
1D
330
1B
100
AcDbEntity
 67
     1
  8
0
100
AcDbBlockEnd
  0
BLOCK
  5
24
330
23
100
AcDbEntity
  8
0
100
AcDbBlockBegin
  2
*Paper_Space0
 70
     0
 10
0.0
 20
0.0
 30
0.0
  3
*Paper_Space0
  1

  0
ENDBLK
  5
25
330
23
100
AcDbEntity
  8
0
100
AcDbBlockEnd
  0
ENDSEC
  0
SECTION
  2
ENTITIES
  0
SPLINE
  5
5F
330
1F
100
AcDbEntity
  8
layer 1
 62
   250
370
    20
100
AcDbSpline
210
0.0
220
0.0
230
1.0
 70
    11
 71
     3
 72
    16
 73
    12
 74
     0
 42
0.0000000001
 43
0.0000000001
 40
0.0
 40
0.0
 40
0.0
 40
0.0
 40
0.3333333333333333
 40
0.3333333333333333
 40
0.3333333333333333
 40
0.3333333333333333
 40
0.6666666666666666
 40
0.6666666666666666
 40
0.6666666666666666
 40
0.6666666666666666
 40
1.0
 40
1.0
 40
1.0
 40
1.0
 10
231.0252
 20
239.3536
 30
0.0
 10
231.0252
 20
239.3536
 30
0.0
 10
231.0257
 20
237.4191
 30
0.0
 10
231.0257
 20
237.4191
 30
0.0
 10
231.0257
 20
237.4191
 30
0.0
 10
231.3924
 20
237.8528
 30
0.0
 10
231.8593
 20
238.0531
 30
0.0
 10
232.4263
 20
238.0199
 30
0.0
 10
232.4263
 20
238.0199
 30
0.0
 10
232.4263
 20
238.0199
 30
0.0
 10
231.0252
 20
239.3536
 30
0.0
 10
231.0252
 20
239.3536
 30
0.0
  0
SPLINE
  5
60
330
1F
100
AcDbEntity
  8
layer 1
 62
   250
370
    20
100
AcDbSpline
210
0.0
220
0.0
230
1.0
 70
    24
 71
     3
 72
     8
 73
     4
 74
     0
 42
0.0000000001
 43
0.0000000001
 40
0.0
 40
0.0
 40
0.0
 40
0.0
 40
1.0
 40
1.0
 40
1.0
 40
1.0
 10
233.7064
 20
233.1022
 30
0.0
 10
233.7064
 20
233.1022
 30
0.0
 10
231.0252
 20
239.3536
 30
0.0
 10
231.0252
 20
239.3536
 30
0.0
  0
SPLINE
  5
61
330
1F
100
AcDbEntity
  8
layer 1
 62
   250
370
    20
100
AcDbSpline
210
0.0
220
0.0
230
1.0
 70
    11
 71
     3
 72
    16
 73
    12
 74
     0
 42
0.0000000001
 43
0.0000000001
 40
0.0
 40
0.0
 40
0.0
 40
0.0
 40
0.3333333333333333
 40
0.3333333333333333
 40
0.3333333333333333
 40
0.3333333333333333
 40
0.6666666666666666
 40
0.6666666666666666
 40
0.6666666666666666
 40
0.6666666666666666
 40
1.0
 40
1.0
 40
1.0
 40
1.0
 10
272.9786
 20
239.7447
 30
0.0
 10
272.9786
 20
239.7447
 30
0.0
 10
272.9791
 20
237.8102
 30
0.0
 10
272.9791
 20
237.8102
 30
0.0
 10
272.9791
 20
237.8102
 30
0.0
 10
273.3458
 20
238.2439
 30
0.0
 10
273.8127
 20
238.4442
 30
0.0
 10
274.3797
 20
238.411
 30
0.0
 10
274.3797
 20
238.411
 30
0.0
 10
274.3797
 20
238.411
 30
0.0
 10
272.9786
 20
239.7447
 30
0.0
 10
272.9786
 20
239.7447
 30
0.0
  0
SPLINE
  5
62
330
1F
100
AcDbEntity
  8
layer 1
 62
   250
370
    20
100
AcDbSpline
210
0.0
220
0.0
230
1.0
 70
    24
 71
     3
 72
     8
 73
     4
 74
     0
 42
0.0000000001
 43
0.0000000001
 40
0.0
 40
0.0
 40
0.0
 40
0.0
 40
1.0
 40
1.0
 40
1.0
 40
1.0
 10
275.6353
 20
233.5506
 30
0.0
 10
275.6353
 20
233.5506
 30
0.0
 10
272.9786
 20
239.7447
 30
0.0
 10
272.9786
 20
239.7447
 30
0.0
  0
TEXT
  5
65
330
1F
100
AcDbEntity
  8
DEFPOINTS
100
AcDbText
 10
184.3354
 20
232.0449
 30
0.0
 40
1.272456
  1
Please use inner line for negative reveal 1/8"
 50
-0.1237645630145031
 51
0.1217551954436076
  7
0
100
AcDbText
  0
TEXT
  5
67
330
1F
100
AcDbEntity
  8
DEFPOINTS
100
AcDbText
 10
225.8293
 20
231.9153
 30
0.0
 40
1.381392
  1
Please use middle line for flushed reveal
 50
0.0531739771006983
 51
-0.0000015352345087
  7
1
100
AcDbText
  0
TEXT
  5
69
330
1F
100
AcDbEntity
  8
DEFPOINTS
100
AcDbText
 10
268.8163
 20
232.0443
 30
0.0
 40
1.270512
  1
Please use outer line for positive reveal 1/8"
 50
0.0723556255927841
 51
-0.7214193946669837
  7
2
100
AcDbText
  0
SPLINE
  5
6A
330
1F
100
AcDbEntity
  8
DEFPOINTS
 62
   250
370
    20
100
AcDbSpline
210
0.0
220
0.0
230
1.0
 70
    11
 71
     3
 72
    16
 73
    12
 74
     0
 42
0.0000000001
 43
0.0000000001
 40
0.0
 40
0.0
 40
0.0
 40
0.0
 40
0.3333333333333333
 40
0.3333333333333333
 40
0.3333333333333333
 40
0.3333333333333333
 40
0.6666666666666666
 40
0.6666666666666666
 40
0.6666666666666666
 40
0.6666666666666666
 40
1.0
 40
1.0
 40
1.0
 40
1.0
 10
189.0648
 20
238.8489
 30
0.0
 10
189.0648
 20
238.8489
 30
0.0
 10
189.0653
 20
236.9144
 30
0.0
 10
189.0653
 20
236.9144
 30
0.0
 10
189.0653
 20
236.9144
 30
0.0
 10
189.4321
 20
237.3481
 30
0.0
 10
189.8989
 20
237.5484
 30
0.0
 10
190.4659
 20
237.5152
 30
0.0
 10
190.4659
 20
237.5152
 30
0.0
 10
190.4659
 20
237.5152
 30
0.0
 10
189.0648
 20
238.8489
 30
0.0
 10
189.0648
 20
238.8489
 30
0.0
  0
SPLINE
  5
6B
330
1F
100
AcDbEntity
  8
DEFPOINTS
 62
   250
370
    20
100
AcDbSpline
210
0.0
220
0.0
230
1.0
 70
    24
 71
     3
 72
     8
 73
     4
 74
     0
 42
0.0000000001
 43
0.0000000001
 40
0.0
 40
0.0
 40
0.0
 40
0.0
 40
1.0
 40
1.0
 40
1.0
 40
1.0
 10
191.5052
 20
233.1593
 30
0.0
 10
191.5052
 20
233.1593
 30
0.0
 10
189.0648
 20
238.8489
 30
0.0
 10
189.0648
 20
238.8489
 30
0.0
  0
TEXT
  5
6D
330
1F
100
AcDbEntity
  8
DEFPOINTS
 62
   250
100
AcDbText
 10
192.5006
 20
165.4598
 30
0.0
 40
3.047976
  1
Please check actual template against physical sink unit for 
 51
-0.0000015352345087
  7
3
100
AcDbText
  0
TEXT
  5
6E
330
1F
100
AcDbEntity
  8
DEFPOINTS
 62
   250
100
AcDbText
 10
192.5006
 20
160.7714
 30
0.0
 40
3.047976
  1
most accurate cut!
 51
-0.0000015352345087
  7
0
100
AcDbText
  0
TEXT
  5
70
330
1F
100
AcDbEntity
  8
DEFPOINTS
 62
   250
100
AcDbText
 10
204.4309
 20
253.5379
 30
0.0
 40
6.096023999999999
  1
FH 0011
 51
-0.0000015352345087
  7
4
100
AcDbText
  0
TEXT
  5
71
330
1F
100
AcDbEntity
  8
DEFPOINTS
 62
   250
100
AcDbText
 10
242.3924
 20
253.5379
 30
0.0
 40
6.096023999999999
  1
ASR3320C
 51
-0.0000015352345087
  7
4
100
AcDbText
  0
TEXT
  5
73
330
1F
100
AcDbEntity
  8
DEFPOINTS
 62
   250
100
AcDbText
 10
238.159
 20
253.5379
 30
0.0
 40
6.096023999999999
  1
 
 51
-0.0000015352345087
  7
5
100
AcDbText
  0
SPLINE
  5
74
330
1F
100
AcDbEntity
  8
DEFPOINTS
370
    25
100
AcDbSpline
210
0.0
220
0.0
230
1.0
 70
    24
 71
     3
 72
     8
 73
     4
 74
     0
 42
0.0000000001
 43
0.0000000001
 40
0.0
 40
0.0
 40
0.0
 40
0.0
 40
1.0
 40
1.0
 40
1.0
 40
1.0
 10
181.7767
 20
239.2992
 30
0.0
 10
181.7767
 20
239.2992
 30
0.0
 10
182.7292
 20
239.2992
 30
0.0
 10
182.7292
 20
239.2992
 30
0.0
  0
SPLINE
  5
75
330
1F
100
AcDbEntity
  8
DEFPOINTS
370
    25
100
AcDbSpline
210
0.0
220
0.0
230
1.0
 70
    24
 71
     3
 72
     8
 73
     4
 74
     0
 42
0.0000000001
 43
0.0000000001
 40
0.0
 40
0.0
 40
0.0
 40
0.0
 40
1.0
 40
1.0
 40
1.0
 40
1.0
 10
183.3642
 20
239.2992
 30
0.0
 10
183.3642
 20
239.2992
 30
0.0
 10
184.6766
 20
239.2992
 30
0.0
 10
184.6766
 20
239.2992
 30
0.0
  0
SPLINE
  5
76
330
1F
100
AcDbEntity
  8
DEFPOINTS
370
    25
100
AcDbSpline
210
0.0
220
0.0
230
1.0
 70
    24
 71
     3
 72
     8
 73
     4
 74
     0
 42
0.0000000001
 43
0.0000000001
 40
0.0
 40
0.0
 40
0.0
 40
0.0
 40
1.0
 40
1.0
 40
1.0
 40
1.0
 10
185.3327
 20
239.2992
 30
0.0
 10
185.3327
 20
239.2992
 30
0.0
 10
186.6451
 20
239.2992
 30
0.0
 10
186.6451
 20
239.2992
 30
0.0
  0
SPLINE
  5
77
330
1F
100
AcDbEntity
  8
DEFPOINTS
370
    25
100
AcDbSpline
210
0.0
220
0.0
230
1.0
 70
    24
 71
     3
 72
     8
 73
     4
 74
     0
 42
0.0000000001
 43
0.0000000001
 40
0.0
 40
0.0
 40
0.0
 40
0.0
 40
1.0
 40
1.0
 40
1.0
 40
1.0
 10
187.2801
 20
239.2992
 30
0.0
 10
187.2801
 20
239.2992
 30
0.0
 10
188.5924
 20
239.2992
 30
0.0
 10
188.5924
 20
239.2992
 30
0.0
  0
SPLINE
  5
78
330
1F
100
AcDbEntity
  8
DEFPOINTS
370
    25
100
AcDbSpline
210
0.0
220
0.0
230
1.0
 70
    24
 71
     3
 72
     8
 73
     4
 74
     0
 42
0.0000000001
 43
0.0000000001
 40
0.0
 40
0.0
 40
0.0
 40
0.0
 40
1.0
 40
1.0
 40
1.0
 40
1.0
 10
189.2486
 20
239.2992
 30
0.0
 10
189.2486
 20
239.2992
 30
0.0
 10
190.5609
 20
239.2992
 30
0.0
 10
190.5609
 20
239.2992
 30
0.0
  0
SPLINE
  5
79
330
1F
100
AcDbEntity
  8
DEFPOINTS
370
    25
100
AcDbSpline
210
0.0
220
0.0
230
1.0
 70
    24
 71
     3
 72
     8
 73
     4
 74
     0
 42
0.0000000001
 43
0.0000000001
 40
0.0
 40
0.0
 40
0.0
 40
0.0
 40
1.0
 40
1.0
 40
1.0
 40
1.0
 10
191.1959
 20
239.2992
 30
0.0
 10
191.1959
 20
239.2992
 30
0.0
 10
192.5082
 20
239.2992
 30
0.0
 10
192.5082
 20
239.2992
 30
0.0
  0
SPLINE
  5
7A
330
1F
100
AcDbEntity
  8
DEFPOINTS
370
    25
100
AcDbSpline
210
0.0
220
0.0
230
1.0
 70
    24
 71
     3
 72
     8
 73
     4
 74
     0
 42
0.0000000001
 43
0.0000000001
 40
0.0
 40
0.0
 40
0.0
 40
0.0
 40
1.0
 40
1.0
 40
1.0
 40
1.0
 10
193.1644
 20
239.2992
 30
0.0
 10
193.1644
 20
239.2992
 30
0.0
 10
194.4767
 20
239.2992
 30
0.0
 10
194.4767
 20
239.2992
 30
0.0
  0
SPLINE
  5
7B
330
1F
100
AcDbEntity
  8
DEFPOINTS
370
    25
100
AcDbSpline
210
0.0
220
0.0
230
1.0
 70
    24
 71
     3
 72
     8
 73
     4
 74
     0
 42
0.0000000001
 43
0.0000000001
 40
0.0
 40
0.0
 40
0.0
 40
0.0
 40
1.0
 40
1.0
 40
1.0
 40
1.0
 10
195.1117
 20
239.2992
 30
0.0
 10
195.1117
 20
239.2992
 30
0.0
 10
196.4241
 20
239.2992
 30
0.0
 10
196.4241
 20
239.2992
 30
0.0
  0
SPLINE
  5
7C
330
1F
100
AcDbEntity
  8
DEFPOINTS
370
    25
100
AcDbSpline
210
0.0
220
0.0
230
1.0
 70
    24
 71
     3
 72
     8
 73
     4
 74
     0
 42
0.0000000001
 43
0.0000000001
 40
0.0
 40
0.0
 40
0.0
 40
0.0
 40
1.0
 40
1.0
 40
1.0
 40
1.0
 10
197.0802
 20
239.2992
 30
0.0
 10
197.0802
 20
239.2992
 30
0.0
 10
198.3926
 20
239.2992
 30
0.0
 10
198.3926
 20
239.2992
 30
0.0
  0
SPLINE
  5
7D
330
1F
100
AcDbEntity
  8
DEFPOINTS
370
    25
100
AcDbSpline
210
0.0
220
0.0
230
1.0
 70
    24
 71
     3
 72
     8
 73
     4
 74
     0
 42
0.0000000001
 43
0.0000000001
 40
0.0
 40
0.0
 40
0.0
 40
0.0
 40
1.0
 40
1.0
 40
1.0
 40
1.0
 10
199.0276
 20
239.2992
 30
0.0
 10
199.0276
 20
239.2992
 30
0.0
 10
200.3399
 20
239.2992
 30
0.0
 10
200.3399
 20
239.2992
 30
0.0
  0
SPLINE
  5
7E
330
1F
100
AcDbEntity
  8
DEFPOINTS
370
    25
100
AcDbSpline
210
0.0
220
0.0
230
1.0
 70
    24
 71
     3
 72
     8
 73
     4
 74
     0
 42
0.0000000001
 43
0.0000000001
 40
0.0
 40
0.0
 40
0.0
 40
0.0
 40
1.0
 40
1.0
 40
1.0
 40
1.0
 10
200.9961
 20
239.2992
 30
0.0
 10
200.9961
 20
239.2992
 30
0.0
 10
202.3084
 20
239.2992
 30
0.0
 10
202.3084
 20
239.2992
 30
0.0
  0
SPLINE
  5
7F
330
1F
100
AcDbEntity
  8
DEFPOINTS
370
    25
100
AcDbSpline
210
0.0
220
0.0
230
1.0
 70
    24
 71
     3
 72
     8
 73
     4
 74
     0
 42
0.0000000001
 43
0.0000000001
 40
0.0
 40
0.0
 40
0.0
 40
0.0
 40
1.0
 40
1.0
 40
1.0
 40
1.0
 10
202.9434
 20
239.2992
 30
0.0
 10
202.9434
 20
239.2992
 30
0.0
 10
204.2557
 20
239.2992
 30
0.0
 10
204.2557
 20
239.2992
 30
0.0
  0
SPLINE
  5
80
330
1F
100
AcDbEntity
  8
DEFPOINTS
370
    25
100
AcDbSpline
210
0.0
220
0.0
230
1.0
 70
    24
 71
     3
 72
     8
 73
     4
 74
     0
 42
0.0000000001
 43
0.0000000001
 40
0.0
 40
0.0
 40
0.0
 40
0.0
 40
1.0
 40
1.0
 40
1.0
 40
1.0
 10
204.9119
 20
239.2992
 30
0.0
 10
204.9119
 20
239.2992
 30
0.0
 10
206.2242
 20
239.2992
 30
0.0
 10
206.2242
 20
239.2992
 30
0.0
  0
SPLINE
  5
81
330
1F
100
AcDbEntity
  8
DEFPOINTS
370
    25
100
AcDbSpline
210
0.0
220
0.0
230
1.0
 70
    24
 71
     3
 72
     8
 73
     4
 74
     0
 42
0.0000000001
 43
0.0000000001
 40
0.0
 40
0.0
 40
0.0
 40
0.0
 40
1.0
 40
1.0
 40
1.0
 40
1.0
 10
206.8592
 20
239.2992
 30
0.0
 10
206.8592
 20
239.2992
 30
0.0
 10
208.1716
 20
239.2992
 30
0.0
 10
208.1716
 20
239.2992
 30
0.0
  0
SPLINE
  5
82
330
1F
100
AcDbEntity
  8
DEFPOINTS
370
    25
100
AcDbSpline
210
0.0
220
0.0
230
1.0
 70
    24
 71
     3
 72
     8
 73
     4
 74
     0
 42
0.0000000001
 43
0.0000000001
 40
0.0
 40
0.0
 40
0.0
 40
0.0
 40
1.0
 40
1.0
 40
1.0
 40
1.0
 10
208.8277
 20
239.2992
 30
0.0
 10
208.8277
 20
239.2992
 30
0.0
 10
210.1401
 20
239.2992
 30
0.0
 10
210.1401
 20
239.2992
 30
0.0
  0
SPLINE
  5
83
330
1F
100
AcDbEntity
  8
DEFPOINTS
370
    25
100
AcDbSpline
210
0.0
220
0.0
230
1.0
 70
    24
 71
     3
 72
     8
 73
     4
 74
     0
 42
0.0000000001
 43
0.0000000001
 40
0.0
 40
0.0
 40
0.0
 40
0.0
 40
1.0
 40
1.0
 40
1.0
 40
1.0
 10
210.7751
 20
239.2992
 30
0.0
 10
210.7751
 20
239.2992
 30
0.0
 10
212.0874
 20
239.2992
 30
0.0
 10
212.0874
 20
239.2992
 30
0.0
  0
SPLINE
  5
84
330
1F
100
AcDbEntity
  8
DEFPOINTS
370
    25
100
AcDbSpline
210
0.0
220
0.0
230
1.0
 70
    24
 71
     3
 72
     8
 73
     4
 74
     0
 42
0.0000000001
 43
0.0000000001
 40
0.0
 40
0.0
 40
0.0
 40
0.0
 40
1.0
 40
1.0
 40
1.0
 40
1.0
 10
212.7436
 20
239.2992
 30
0.0
 10
212.7436
 20
239.2992
 30
0.0
 10
214.0559
 20
239.2992
 30
0.0
 10
214.0559
 20
239.2992
 30
0.0
  0
SPLINE
  5
85
330
1F
100
AcDbEntity
  8
DEFPOINTS
370
    25
100
AcDbSpline
210
0.0
220
0.0
230
1.0
 70
    24
 71
     3
 72
     8
 73
     4
 74
     0
 42
0.0000000001
 43
0.0000000001
 40
0.0
 40
0.0
 40
0.0
 40
0.0
 40
1.0
 40
1.0
 40
1.0
 40
1.0
 10
214.6909
 20
239.2992
 30
0.0
 10
214.6909
 20
239.2992
 30
0.0
 10
216.0032
 20
239.2992
 30
0.0
 10
216.0032
 20
239.2992
 30
0.0
  0
SPLINE
  5
86
330
1F
100
AcDbEntity
  8
DEFPOINTS
370
    25
100
AcDbSpline
210
0.0
220
0.0
230
1.0
 70
    24
 71
     3
 72
     8
 73
     4
 74
     0
 42
0.0000000001
 43
0.0000000001
 40
0.0
 40
0.0
 40
0.0
 40
0.0
 40
1.0
 40
1.0
 40
1.0
 40
1.0
 10
216.6594
 20
239.2992
 30
0.0
 10
216.6594
 20
239.2992
 30
0.0
 10
217.9717
 20
239.2992
 30
0.0
 10
217.9717
 20
239.2992
 30
0.0
  0
SPLINE
  5
87
330
1F
100
AcDbEntity
  8
DEFPOINTS
370
    25
100
AcDbSpline
210
0.0
220
0.0
230
1.0
 70
    24
 71
     3
 72
     8
 73
     4
 74
     0
 42
0.0000000001
 43
0.0000000001
 40
0.0
 40
0.0
 40
0.0
 40
0.0
 40
1.0
 40
1.0
 40
1.0
 40
1.0
 10
218.6067
 20
239.2992
 30
0.0
 10
218.6067
 20
239.2992
 30
0.0
 10
219.9191
 20
239.2992
 30
0.0
 10
219.9191
 20
239.2992
 30
0.0
  0
SPLINE
  5
88
330
1F
100
AcDbEntity
  8
DEFPOINTS
370
    25
100
AcDbSpline
210
0.0
220
0.0
230
1.0
 70
    24
 71
     3
 72
     8
 73
     4
 74
     0
 42
0.0000000001
 43
0.0000000001
 40
0.0
 40
0.0
 40
0.0
 40
0.0
 40
1.0
 40
1.0
 40
1.0
 40
1.0
 10
220.5752
 20
239.2992
 30
0.0
 10
220.5752
 20
239.2992
 30
0.0
 10
221.8876
 20
239.2992
 30
0.0
 10
221.8876
 20
239.2992
 30
0.0
  0
SPLINE
  5
89
330
1F
100
AcDbEntity
  8
DEFPOINTS
370
    25
100
AcDbSpline
210
0.0
220
0.0
230
1.0
 70
    24
 71
     3
 72
     8
 73
     4
 74
     0
 42
0.0000000001
 43
0.0000000001
 40
0.0
 40
0.0
 40
0.0
 40
0.0
 40
1.0
 40
1.0
 40
1.0
 40
1.0
 10
222.5437
 20
239.2992
 30
0.0
 10
222.5437
 20
239.2992
 30
0.0
 10
223.8349
 20
239.2992
 30
0.0
 10
223.8349
 20
239.2992
 30
0.0
  0
SPLINE
  5
8A
330
1F
100
AcDbEntity
  8
DEFPOINTS
370
    25
100
AcDbSpline
210
0.0
220
0.0
230
1.0
 70
    24
 71
     3
 72
     8
 73
     4
 74
     0
 42
0.0000000001
 43
0.0000000001
 40
0.0
 40
0.0
 40
0.0
 40
0.0
 40
1.0
 40
1.0
 40
1.0
 40
1.0
 10
224.4911
 20
239.2992
 30
0.0
 10
224.4911
 20
239.2992
 30
0.0
 10
225.8034
 20
239.2992
 30
0.0
 10
225.8034
 20
239.2992
 30
0.0
  0
SPLINE
  5
8B
330
1F
100
AcDbEntity
  8
DEFPOINTS
370
    25
100
AcDbSpline
210
0.0
220
0.0
230
1.0
 70
    24
 71
     3
 72
     8
 73
     4
 74
     0
 42
0.0000000001
 43
0.0000000001
 40
0.0
 40
0.0
 40
0.0
 40
0.0
 40
1.0
 40
1.0
 40
1.0
 40
1.0
 10
226.4596
 20
239.2992
 30
0.0
 10
226.4596
 20
239.2992
 30
0.0
 10
227.7507
 20
239.2992
 30
0.0
 10
227.7507
 20
239.2992
 30
0.0
  0
SPLINE
  5
8C
330
1F
100
AcDbEntity
  8
DEFPOINTS
370
    25
100
AcDbSpline
210
0.0
220
0.0
230
1.0
 70
    24
 71
     3
 72
     8
 73
     4
 74
     0
 42
0.0000000001
 43
0.0000000001
 40
0.0
 40
0.0
 40
0.0
 40
0.0
 40
1.0
 40
1.0
 40
1.0
 40
1.0
 10
228.4069
 20
239.2992
 30
0.0
 10
228.4069
 20
239.2992
 30
0.0
 10
229.7192
 20
239.2992
 30
0.0
 10
229.7192
 20
239.2992
 30
0.0
  0
SPLINE
  5
8D
330
1F
100
AcDbEntity
  8
DEFPOINTS
370
    25
100
AcDbSpline
210
0.0
220
0.0
230
1.0
 70
    24
 71
     3
 72
     8
 73
     4
 74
     0
 42
0.0000000001
 43
0.0000000001
 40
0.0
 40
0.0
 40
0.0
 40
0.0
 40
1.0
 40
1.0
 40
1.0
 40
1.0
 10
230.3754
 20
239.2992
 30
0.0
 10
230.3754
 20
239.2992
 30
0.0
 10
231.6666
 20
239.2992
 30
0.0
 10
231.6666
 20
239.2992
 30
0.0
  0
SPLINE
  5
8E
330
1F
100
AcDbEntity
  8
DEFPOINTS
370
    25
100
AcDbSpline
210
0.0
220
0.0
230
1.0
 70
    24
 71
     3
 72
     8
 73
     4
 74
     0
 42
0.0000000001
 43
0.0000000001
 40
0.0
 40
0.0
 40
0.0
 40
0.0
 40
1.0
 40
1.0
 40
1.0
 40
1.0
 10
232.3227
 20
239.2992
 30
0.0
 10
232.3227
 20
239.2992
 30
0.0
 10
233.6351
 20
239.2992
 30
0.0
 10
233.6351
 20
239.2992
 30
0.0
  0
SPLINE
  5
8F
330
1F
100
AcDbEntity
  8
DEFPOINTS
370
    25
100
AcDbSpline
210
0.0
220
0.0
230
1.0
 70
    24
 71
     3
 72
     8
 73
     4
 74
     0
 42
0.0000000001
 43
0.0000000001
 40
0.0
 40
0.0
 40
0.0
 40
0.0
 40
1.0
 40
1.0
 40
1.0
 40
1.0
 10
234.2912
 20
239.2992
 30
0.0
 10
234.2912
 20
239.2992
 30
0.0
 10
235.5824
 20
239.2992
 30
0.0
 10
235.5824
 20
239.2992
 30
0.0
  0
SPLINE
  5
90
330
1F
100
AcDbEntity
  8
DEFPOINTS
370
    25
100
AcDbSpline
210
0.0
220
0.0
230
1.0
 70
    24
 71
     3
 72
     8
 73
     4
 74
     0
 42
0.0000000001
 43
0.0000000001
 40
0.0
 40
0.0
 40
0.0
 40
0.0
 40
1.0
 40
1.0
 40
1.0
 40
1.0
 10
236.2386
 20
239.2992
 30
0.0
 10
236.2386
 20
239.2992
 30
0.0
 10
237.5509
 20
239.2992
 30
0.0
 10
237.5509
 20
239.2992
 30
0.0
  0
SPLINE
  5
91
330
1F
100
AcDbEntity
  8
DEFPOINTS
370
    25
100
AcDbSpline
210
0.0
220
0.0
230
1.0
 70
    24
 71
     3
 72
     8
 73
     4
 74
     0
 42
0.0000000001
 43
0.0000000001
 40
0.0
 40
0.0
 40
0.0
 40
0.0
 40
1.0
 40
1.0
 40
1.0
 40
1.0
 10
238.2071
 20
239.2992
 30
0.0
 10
238.2071
 20
239.2992
 30
0.0
 10
239.4982
 20
239.2992
 30
0.0
 10
239.4982
 20
239.2992
 30
0.0
  0
SPLINE
  5
92
330
1F
100
AcDbEntity
  8
DEFPOINTS
370
    25
100
AcDbSpline
210
0.0
220
0.0
230
1.0
 70
    24
 71
     3
 72
     8
 73
     4
 74
     0
 42
0.0000000001
 43
0.0000000001
 40
0.0
 40
0.0
 40
0.0
 40
0.0
 40
1.0
 40
1.0
 40
1.0
 40
1.0
 10
240.1544
 20
239.2992
 30
0.0
 10
240.1544
 20
239.2992
 30
0.0
 10
241.4667
 20
239.2992
 30
0.0
 10
241.4667
 20
239.2992
 30
0.0
  0
SPLINE
  5
93
330
1F
100
AcDbEntity
  8
DEFPOINTS
370
    25
100
AcDbSpline
210
0.0
220
0.0
230
1.0
 70
    24
 71
     3
 72
     8
 73
     4
 74
     0
 42
0.0000000001
 43
0.0000000001
 40
0.0
 40
0.0
 40
0.0
 40
0.0
 40
1.0
 40
1.0
 40
1.0
 40
1.0
 10
242.1229
 20
239.2992
 30
0.0
 10
242.1229
 20
239.2992
 30
0.0
 10
243.4141
 20
239.2992
 30
0.0
 10
243.4141
 20
239.2992
 30
0.0
  0
SPLINE
  5
94
330
1F
100
AcDbEntity
  8
DEFPOINTS
370
    25
100
AcDbSpline
210
0.0
220
0.0
230
1.0
 70
    24
 71
     3
 72
     8
 73
     4
 74
     0
 42
0.0000000001
 43
0.0000000001
 40
0.0
 40
0.0
 40
0.0
 40
0.0
 40
1.0
 40
1.0
 40
1.0
 40
1.0
 10
244.0702
 20
239.2992
 30
0.0
 10
244.0702
 20
239.2992
 30
0.0
 10
245.3826
 20
239.2992
 30
0.0
 10
245.3826
 20
239.2992
 30
0.0
  0
SPLINE
  5
95
330
1F
100
AcDbEntity
  8
DEFPOINTS
370
    25
100
AcDbSpline
210
0.0
220
0.0
230
1.0
 70
    24
 71
     3
 72
     8
 73
     4
 74
     0
 42
0.0000000001
 43
0.0000000001
 40
0.0
 40
0.0
 40
0.0
 40
0.0
 40
1.0
 40
1.0
 40
1.0
 40
1.0
 10
246.0387
 20
239.2992
 30
0.0
 10
246.0387
 20
239.2992
 30
0.0
 10
247.3299
 20
239.2992
 30
0.0
 10
247.3299
 20
239.2992
 30
0.0
  0
SPLINE
  5
96
330
1F
100
AcDbEntity
  8
DEFPOINTS
370
    25
100
AcDbSpline
210
0.0
220
0.0
230
1.0
 70
    24
 71
     3
 72
     8
 73
     4
 74
     0
 42
0.0000000001
 43
0.0000000001
 40
0.0
 40
0.0
 40
0.0
 40
0.0
 40
1.0
 40
1.0
 40
1.0
 40
1.0
 10
247.9861
 20
239.2992
 30
0.0
 10
247.9861
 20
239.2992
 30
0.0
 10
249.2984
 20
239.2992
 30
0.0
 10
249.2984
 20
239.2992
 30
0.0
  0
SPLINE
  5
97
330
1F
100
AcDbEntity
  8
DEFPOINTS
370
    25
100
AcDbSpline
210
0.0
220
0.0
230
1.0
 70
    24
 71
     3
 72
     8
 73
     4
 74
     0
 42
0.0000000001
 43
0.0000000001
 40
0.0
 40
0.0
 40
0.0
 40
0.0
 40
1.0
 40
1.0
 40
1.0
 40
1.0
 10
249.9546
 20
239.2992
 30
0.0
 10
249.9546
 20
239.2992
 30
0.0
 10
251.2457
 20
239.2992
 30
0.0
 10
251.2457
 20
239.2992
 30
0.0
  0
SPLINE
  5
98
330
1F
100
AcDbEntity
  8
DEFPOINTS
370
    25
100
AcDbSpline
210
0.0
220
0.0
230
1.0
 70
    24
 71
     3
 72
     8
 73
     4
 74
     0
 42
0.0000000001
 43
0.0000000001
 40
0.0
 40
0.0
 40
0.0
 40
0.0
 40
1.0
 40
1.0
 40
1.0
 40
1.0
 10
251.9019
 20
239.2992
 30
0.0
 10
251.9019
 20
239.2992
 30
0.0
 10
253.2142
 20
239.2992
 30
0.0
 10
253.2142
 20
239.2992
 30
0.0
  0
SPLINE
  5
99
330
1F
100
AcDbEntity
  8
DEFPOINTS
370
    25
100
AcDbSpline
210
0.0
220
0.0
230
1.0
 70
    24
 71
     3
 72
     8
 73
     4
 74
     0
 42
0.0000000001
 43
0.0000000001
 40
0.0
 40
0.0
 40
0.0
 40
0.0
 40
1.0
 40
1.0
 40
1.0
 40
1.0
 10
253.8704
 20
239.2992
 30
0.0
 10
253.8704
 20
239.2992
 30
0.0
 10
255.1616
 20
239.2992
 30
0.0
 10
255.1616
 20
239.2992
 30
0.0
  0
SPLINE
  5
9A
330
1F
100
AcDbEntity
  8
DEFPOINTS
370
    25
100
AcDbSpline
210
0.0
220
0.0
230
1.0
 70
    24
 71
     3
 72
     8
 73
     4
 74
     0
 42
0.0000000001
 43
0.0000000001
 40
0.0
 40
0.0
 40
0.0
 40
0.0
 40
1.0
 40
1.0
 40
1.0
 40
1.0
 10
255.8177
 20
239.2992
 30
0.0
 10
255.8177
 20
239.2992
 30
0.0
 10
257.1301
 20
239.2992
 30
0.0
 10
257.1301
 20
239.2992
 30
0.0
  0
SPLINE
  5
9B
330
1F
100
AcDbEntity
  8
DEFPOINTS
370
    25
100
AcDbSpline
210
0.0
220
0.0
230
1.0
 70
    24
 71
     3
 72
     8
 73
     4
 74
     0
 42
0.0000000001
 43
0.0000000001
 40
0.0
 40
0.0
 40
0.0
 40
0.0
 40
1.0
 40
1.0
 40
1.0
 40
1.0
 10
257.7862
 20
239.2992
 30
0.0
 10
257.7862
 20
239.2992
 30
0.0
 10
259.0774
 20
239.2992
 30
0.0
 10
259.0774
 20
239.2992
 30
0.0
  0
SPLINE
  5
9C
330
1F
100
AcDbEntity
  8
DEFPOINTS
370
    25
100
AcDbSpline
210
0.0
220
0.0
230
1.0
 70
    24
 71
     3
 72
     8
 73
     4
 74
     0
 42
0.0000000001
 43
0.0000000001
 40
0.0
 40
0.0
 40
0.0
 40
0.0
 40
1.0
 40
1.0
 40
1.0
 40
1.0
 10
259.7336
 20
239.2992
 30
0.0
 10
259.7336
 20
239.2992
 30
0.0
 10
261.0459
 20
239.2992
 30
0.0
 10
261.0459
 20
239.2992
 30
0.0
  0
SPLINE
  5
9D
330
1F
100
AcDbEntity
  8
DEFPOINTS
370
    25
100
AcDbSpline
210
0.0
220
0.0
230
1.0
 70
    24
 71
     3
 72
     8
 73
     4
 74
     0
 42
0.0000000001
 43
0.0000000001
 40
0.0
 40
0.0
 40
0.0
 40
0.0
 40
1.0
 40
1.0
 40
1.0
 40
1.0
 10
261.7021
 20
239.2992
 30
0.0
 10
261.7021
 20
239.2992
 30
0.0
 10
262.9932
 20
239.2992
 30
0.0
 10
262.9932
 20
239.2992
 30
0.0
  0
SPLINE
  5
9E
330
1F
100
AcDbEntity
  8
DEFPOINTS
370
    25
100
AcDbSpline
210
0.0
220
0.0
230
1.0
 70
    24
 71
     3
 72
     8
 73
     4
 74
     0
 42
0.0000000001
 43
0.0000000001
 40
0.0
 40
0.0
 40
0.0
 40
0.0
 40
1.0
 40
1.0
 40
1.0
 40
1.0
 10
263.6494
 20
239.2992
 30
0.0
 10
263.6494
 20
239.2992
 30
0.0
 10
264.9617
 20
239.2992
 30
0.0
 10
264.9617
 20
239.2992
 30
0.0
  0
SPLINE
  5
9F
330
1F
100
AcDbEntity
  8
DEFPOINTS
370
    25
100
AcDbSpline
210
0.0
220
0.0
230
1.0
 70
    24
 71
     3
 72
     8
 73
     4
 74
     0
 42
0.0000000001
 43
0.0000000001
 40
0.0
 40
0.0
 40
0.0
 40
0.0
 40
1.0
 40
1.0
 40
1.0
 40
1.0
 10
265.6179
 20
239.2992
 30
0.0
 10
265.6179
 20
239.2992
 30
0.0
 10
266.9091
 20
239.2992
 30
0.0
 10
266.9091
 20
239.2992
 30
0.0
  0
SPLINE
  5
A0
330
1F
100
AcDbEntity
  8
DEFPOINTS
370
    25
100
AcDbSpline
210
0.0
220
0.0
230
1.0
 70
    24
 71
     3
 72
     8
 73
     4
 74
     0
 42
0.0000000001
 43
0.0000000001
 40
0.0
 40
0.0
 40
0.0
 40
0.0
 40
1.0
 40
1.0
 40
1.0
 40
1.0
 10
267.5652
 20
239.2992
 30
0.0
 10
267.5652
 20
239.2992
 30
0.0
 10
268.8776
 20
239.2992
 30
0.0
 10
268.8776
 20
239.2992
 30
0.0
  0
SPLINE
  5
A1
330
1F
100
AcDbEntity
  8
DEFPOINTS
370
    25
100
AcDbSpline
210
0.0
220
0.0
230
1.0
 70
    24
 71
     3
 72
     8
 73
     4
 74
     0
 42
0.0000000001
 43
0.0000000001
 40
0.0
 40
0.0
 40
0.0
 40
0.0
 40
1.0
 40
1.0
 40
1.0
 40
1.0
 10
269.5337
 20
239.2992
 30
0.0
 10
269.5337
 20
239.2992
 30
0.0
 10
270.8249
 20
239.2992
 30
0.0
 10
270.8249
 20
239.2992
 30
0.0
  0
SPLINE
  5
A2
330
1F
100
AcDbEntity
  8
DEFPOINTS
370
    25
100
AcDbSpline
210
0.0
220
0.0
230
1.0
 70
    24
 71
     3
 72
     8
 73
     4
 74
     0
 42
0.0000000001
 43
0.0000000001
 40
0.0
 40
0.0
 40
0.0
 40
0.0
 40
1.0
 40
1.0
 40
1.0
 40
1.0
 10
271.4811
 20
239.2992
 30
0.0
 10
271.4811
 20
239.2992
 30
0.0
 10
272.7934
 20
239.2992
 30
0.0
 10
272.7934
 20
239.2992
 30
0.0
  0
SPLINE
  5
A3
330
1F
100
AcDbEntity
  8
DEFPOINTS
370
    25
100
AcDbSpline
210
0.0
220
0.0
230
1.0
 70
    24
 71
     3
 72
     8
 73
     4
 74
     0
 42
0.0000000001
 43
0.0000000001
 40
0.0
 40
0.0
 40
0.0
 40
0.0
 40
1.0
 40
1.0
 40
1.0
 40
1.0
 10
273.4496
 20
239.2992
 30
0.0
 10
273.4496
 20
239.2992
 30
0.0
 10
274.7407
 20
239.2992
 30
0.0
 10
274.7407
 20
239.2992
 30
0.0
  0
SPLINE
  5
A4
330
1F
100
AcDbEntity
  8
DEFPOINTS
370
    25
100
AcDbSpline
210
0.0
220
0.0
230
1.0
 70
    24
 71
     3
 72
     8
 73
     4
 74
     0
 42
0.0000000001
 43
0.0000000001
 40
0.0
 40
0.0
 40
0.0
 40
0.0
 40
1.0
 40
1.0
 40
1.0
 40
1.0
 10
275.3969
 20
239.2992
 30
0.0
 10
275.3969
 20
239.2992
 30
0.0
 10
276.7092
 20
239.2992
 30
0.0
 10
276.7092
 20
239.2992
 30
0.0
  0
SPLINE
  5
A5
330
1F
100
AcDbEntity
  8
DEFPOINTS
370
    25
100
AcDbSpline
210
0.0
220
0.0
230
1.0
 70
    24
 71
     3
 72
     8
 73
     4
 74
     0
 42
0.0000000001
 43
0.0000000001
 40
0.0
 40
0.0
 40
0.0
 40
0.0
 40
1.0
 40
1.0
 40
1.0
 40
1.0
 10
277.3654
 20
239.2992
 30
0.0
 10
277.3654
 20
239.2992
 30
0.0
 10
278.6566
 20
239.2992
 30
0.0
 10
278.6566
 20
239.2992
 30
0.0
  0
SPLINE
  5
A6
330
1F
100
AcDbEntity
  8
DEFPOINTS
370
    25
100
AcDbSpline
210
0.0
220
0.0
230
1.0
 70
    24
 71
     3
 72
     8
 73
     4
 74
     0
 42
0.0000000001
 43
0.0000000001
 40
0.0
 40
0.0
 40
0.0
 40
0.0
 40
1.0
 40
1.0
 40
1.0
 40
1.0
 10
279.3127
 20
239.2992
 30
0.0
 10
279.3127
 20
239.2992
 30
0.0
 10
280.6251
 20
239.2992
 30
0.0
 10
280.6251
 20
239.2992
 30
0.0
  0
SPLINE
  5
A7
330
1F
100
AcDbEntity
  8
DEFPOINTS
370
    25
100
AcDbSpline
210
0.0
220
0.0
230
1.0
 70
    24
 71
     3
 72
     8
 73
     4
 74
     0
 42
0.0000000001
 43
0.0000000001
 40
0.0
 40
0.0
 40
0.0
 40
0.0
 40
1.0
 40
1.0
 40
1.0
 40
1.0
 10
281.2812
 20
239.2992
 30
0.0
 10
281.2812
 20
239.2992
 30
0.0
 10
282.5724
 20
239.2992
 30
0.0
 10
282.5724
 20
239.2992
 30
0.0
  0
SPLINE
  5
A8
330
1F
100
AcDbEntity
  8
DEFPOINTS
370
    25
100
AcDbSpline
210
0.0
220
0.0
230
1.0
 70
    24
 71
     3
 72
     8
 73
     4
 74
     0
 42
0.0000000001
 43
0.0000000001
 40
0.0
 40
0.0
 40
0.0
 40
0.0
 40
1.0
 40
1.0
 40
1.0
 40
1.0
 10
283.2286
 20
239.2992
 30
0.0
 10
283.2286
 20
239.2992
 30
0.0
 10
284.5409
 20
239.2992
 30
0.0
 10
284.5409
 20
239.2992
 30
0.0
  0
SPLINE
  5
A9
330
1F
100
AcDbEntity
  8
DEFPOINTS
370
    25
100
AcDbSpline
210
0.0
220
0.0
230
1.0
 70
    24
 71
     3
 72
     8
 73
     4
 74
     0
 42
0.0000000001
 43
0.0000000001
 40
0.0
 40
0.0
 40
0.0
 40
0.0
 40
1.0
 40
1.0
 40
1.0
 40
1.0
 10
285.1971
 20
239.2992
 30
0.0
 10
285.1971
 20
239.2992
 30
0.0
 10
286.4882
 20
239.2992
 30
0.0
 10
286.4882
 20
239.2992
 30
0.0
  0
SPLINE
  5
AA
330
1F
100
AcDbEntity
  8
DEFPOINTS
370
    25
100
AcDbSpline
210
0.0
220
0.0
230
1.0
 70
    24
 71
     3
 72
     8
 73
     4
 74
     0
 42
0.0000000001
 43
0.0000000001
 40
0.0
 40
0.0
 40
0.0
 40
0.0
 40
1.0
 40
1.0
 40
1.0
 40
1.0
 10
287.1444
 20
239.2992
 30
0.0
 10
287.1444
 20
239.2992
 30
0.0
 10
288.4567
 20
239.2992
 30
0.0
 10
288.4567
 20
239.2992
 30
0.0
  0
SPLINE
  5
AB
330
1F
100
AcDbEntity
  8
DEFPOINTS
370
    25
100
AcDbSpline
210
0.0
220
0.0
230
1.0
 70
    24
 71
     3
 72
     8
 73
     4
 74
     0
 42
0.0000000001
 43
0.0000000001
 40
0.0
 40
0.0
 40
0.0
 40
0.0
 40
1.0
 40
1.0
 40
1.0
 40
1.0
 10
289.1129
 20
239.2992
 30
0.0
 10
289.1129
 20
239.2992
 30
0.0
 10
290.4041
 20
239.2992
 30
0.0
 10
290.4041
 20
239.2992
 30
0.0
  0
SPLINE
  5
AC
330
1F
100
AcDbEntity
  8
DEFPOINTS
370
    25
100
AcDbSpline
210
0.0
220
0.0
230
1.0
 70
    24
 71
     3
 72
     8
 73
     4
 74
     0
 42
0.0000000001
 43
0.0000000001
 40
0.0
 40
0.0
 40
0.0
 40
0.0
 40
1.0
 40
1.0
 40
1.0
 40
1.0
 10
291.0602
 20
239.2992
 30
0.0
 10
291.0602
 20
239.2992
 30
0.0
 10
292.3726
 20
239.2992
 30
0.0
 10
292.3726
 20
239.2992
 30
0.0
  0
SPLINE
  5
AD
330
1F
100
AcDbEntity
  8
DEFPOINTS
370
    25
100
AcDbSpline
210
0.0
220
0.0
230
1.0
 70
    24
 71
     3
 72
     8
 73
     4
 74
     0
 42
0.0000000001
 43
0.0000000001
 40
0.0
 40
0.0
 40
0.0
 40
0.0
 40
1.0
 40
1.0
 40
1.0
 40
1.0
 10
293.0287
 20
239.2992
 30
0.0
 10
293.0287
 20
239.2992
 30
0.0
 10
294.3199
 20
239.2992
 30
0.0
 10
294.3199
 20
239.2992
 30
0.0
  0
SPLINE
  5
AE
330
1F
100
AcDbEntity
  8
DEFPOINTS
370
    25
100
AcDbSpline
210
0.0
220
0.0
230
1.0
 70
    24
 71
     3
 72
     8
 73
     4
 74
     0
 42
0.0000000001
 43
0.0000000001
 40
0.0
 40
0.0
 40
0.0
 40
0.0
 40
1.0
 40
1.0
 40
1.0
 40
1.0
 10
294.9761
 20
239.2992
 30
0.0
 10
294.9761
 20
239.2992
 30
0.0
 10
296.2884
 20
239.2992
 30
0.0
 10
296.2884
 20
239.2992
 30
0.0
  0
SPLINE
  5
AF
330
1F
100
AcDbEntity
  8
DEFPOINTS
370
    25
100
AcDbSpline
210
0.0
220
0.0
230
1.0
 70
    24
 71
     3
 72
     8
 73
     4
 74
     0
 42
0.0000000001
 43
0.0000000001
 40
0.0
 40
0.0
 40
0.0
 40
0.0
 40
1.0
 40
1.0
 40
1.0
 40
1.0
 10
296.9446
 20
239.2992
 30
0.0
 10
296.9446
 20
239.2992
 30
0.0
 10
298.2357
 20
239.2992
 30
0.0
 10
298.2357
 20
239.2992
 30
0.0
  0
SPLINE
  5
B0
330
1F
100
AcDbEntity
  8
DEFPOINTS
370
    25
100
AcDbSpline
210
0.0
220
0.0
230
1.0
 70
    24
 71
     3
 72
     8
 73
     4
 74
     0
 42
0.0000000001
 43
0.0000000001
 40
0.0
 40
0.0
 40
0.0
 40
0.0
 40
1.0
 40
1.0
 40
1.0
 40
1.0
 10
298.8919
 20
239.2992
 30
0.0
 10
298.8919
 20
239.2992
 30
0.0
 10
300.2042
 20
239.2992
 30
0.0
 10
300.2042
 20
239.2992
 30
0.0
  0
SPLINE
  5
B1
330
1F
100
AcDbEntity
  8
DEFPOINTS
370
    25
100
AcDbSpline
210
0.0
220
0.0
230
1.0
 70
    24
 71
     3
 72
     8
 73
     4
 74
     0
 42
0.0000000001
 43
0.0000000001
 40
0.0
 40
0.0
 40
0.0
 40
0.0
 40
1.0
 40
1.0
 40
1.0
 40
1.0
 10
300.8604
 20
239.2992
 30
0.0
 10
300.8604
 20
239.2992
 30
0.0
 10
302.1516
 20
239.2992
 30
0.0
 10
302.1516
 20
239.2992
 30
0.0
  0
SPLINE
  5
B2
330
1F
100
AcDbEntity
  8
DEFPOINTS
370
    25
100
AcDbSpline
210
0.0
220
0.0
230
1.0
 70
    24
 71
     3
 72
     8
 73
     4
 74
     0
 42
0.0000000001
 43
0.0000000001
 40
0.0
 40
0.0
 40
0.0
 40
0.0
 40
1.0
 40
1.0
 40
1.0
 40
1.0
 10
302.8077
 20
239.2992
 30
0.0
 10
302.8077
 20
239.2992
 30
0.0
 10
304.1201
 20
239.2992
 30
0.0
 10
304.1201
 20
239.2992
 30
0.0
  0
SPLINE
  5
B3
330
1F
100
AcDbEntity
  8
DEFPOINTS
370
    25
100
AcDbSpline
210
0.0
220
0.0
230
1.0
 70
    24
 71
     3
 72
     8
 73
     4
 74
     0
 42
0.0000000001
 43
0.0000000001
 40
0.0
 40
0.0
 40
0.0
 40
0.0
 40
1.0
 40
1.0
 40
1.0
 40
1.0
 10
304.7762
 20
239.2992
 30
0.0
 10
304.7762
 20
239.2992
 30
0.0
 10
305.7076
 20
239.2992
 30
0.0
 10
305.7076
 20
239.2992
 30
0.0
  0
SPLINE
  5
B4
330
1F
100
AcDbEntity
  8
DEFPOINTS
370
    25
100
AcDbSpline
210
0.0
220
0.0
230
1.0
 70
    24
 71
     3
 72
     8
 73
     4
 74
     0
 42
0.0000000001
 43
0.0000000001
 40
0.0
 40
0.0
 40
0.0
 40
0.0
 40
1.0
 40
1.0
 40
1.0
 40
1.0
 10
308.3111
 20
236.6957
 30
0.0
 10
308.3111
 20
236.6957
 30
0.0
 10
308.3111
 20
235.087
 30
0.0
 10
308.3111
 20
235.087
 30
0.0
  0
SPLINE
  5
B5
330
1F
100
AcDbEntity
  8
DEFPOINTS
370
    25
100
AcDbSpline
210
0.0
220
0.0
230
1.0
 70
    24
 71
     3
 72
     8
 73
     4
 74
     0
 42
0.0000000001
 43
0.0000000001
 40
0.0
 40
0.0
 40
0.0
 40
0.0
 40
1.0
 40
1.0
 40
1.0
 40
1.0
 10
308.3111
 20
234.4308
 30
0.0
 10
308.3111
 20
234.4308
 30
0.0
 10
308.3111
 20
233.1397
 30
0.0
 10
308.3111
 20
233.1397
 30
0.0
  0
SPLINE
  5
B6
330
1F
100
AcDbEntity
  8
DEFPOINTS
370
    25
100
AcDbSpline
210
0.0
220
0.0
230
1.0
 70
    24
 71
     3
 72
     8
 73
     4
 74
     0
 42
0.0000000001
 43
0.0000000001
 40
0.0
 40
0.0
 40
0.0
 40
0.0
 40
1.0
 40
1.0
 40
1.0
 40
1.0
 10
308.3111
 20
232.4835
 30
0.0
 10
308.3111
 20
232.4835
 30
0.0
 10
308.3111
 20
231.1712
 30
0.0
 10
308.3111
 20
231.1712
 30
0.0
  0
SPLINE
  5
B7
330
1F
100
AcDbEntity
  8
DEFPOINTS
370
    25
100
AcDbSpline
210
0.0
220
0.0
230
1.0
 70
    24
 71
     3
 72
     8
 73
     4
 74
     0
 42
0.0000000001
 43
0.0000000001
 40
0.0
 40
0.0
 40
0.0
 40
0.0
 40
1.0
 40
1.0
 40
1.0
 40
1.0
 10
308.3111
 20
230.515
 30
0.0
 10
308.3111
 20
230.515
 30
0.0
 10
308.3111
 20
229.2238
 30
0.0
 10
308.3111
 20
229.2238
 30
0.0
  0
SPLINE
  5
B8
330
1F
100
AcDbEntity
  8
DEFPOINTS
370
    25
100
AcDbSpline
210
0.0
220
0.0
230
1.0
 70
    24
 71
     3
 72
     8
 73
     4
 74
     0
 42
0.0000000001
 43
0.0000000001
 40
0.0
 40
0.0
 40
0.0
 40
0.0
 40
1.0
 40
1.0
 40
1.0
 40
1.0
 10
308.3111
 20
228.5677
 30
0.0
 10
308.3111
 20
228.5677
 30
0.0
 10
308.3111
 20
227.2553
 30
0.0
 10
308.3111
 20
227.2553
 30
0.0
  0
SPLINE
  5
B9
330
1F
100
AcDbEntity
  8
DEFPOINTS
370
    25
100
AcDbSpline
210
0.0
220
0.0
230
1.0
 70
    24
 71
     3
 72
     8
 73
     4
 74
     0
 42
0.0000000001
 43
0.0000000001
 40
0.0
 40
0.0
 40
0.0
 40
0.0
 40
1.0
 40
1.0
 40
1.0
 40
1.0
 10
308.3111
 20
226.5992
 30
0.0
 10
308.3111
 20
226.5992
 30
0.0
 10
308.3111
 20
225.308
 30
0.0
 10
308.3111
 20
225.308
 30
0.0
  0
SPLINE
  5
BA
330
1F
100
AcDbEntity
  8
DEFPOINTS
370
    25
100
AcDbSpline
210
0.0
220
0.0
230
1.0
 70
    24
 71
     3
 72
     8
 73
     4
 74
     0
 42
0.0000000001
 43
0.0000000001
 40
0.0
 40
0.0
 40
0.0
 40
0.0
 40
1.0
 40
1.0
 40
1.0
 40
1.0
 10
308.3111
 20
224.6518
 30
0.0
 10
308.3111
 20
224.6518
 30
0.0
 10
308.3111
 20
223.3395
 30
0.0
 10
308.3111
 20
223.3395
 30
0.0
  0
SPLINE
  5
BB
330
1F
100
AcDbEntity
  8
DEFPOINTS
370
    25
100
AcDbSpline
210
0.0
220
0.0
230
1.0
 70
    24
 71
     3
 72
     8
 73
     4
 74
     0
 42
0.0000000001
 43
0.0000000001
 40
0.0
 40
0.0
 40
0.0
 40
0.0
 40
1.0
 40
1.0
 40
1.0
 40
1.0
 10
308.3111
 20
222.6833
 30
0.0
 10
308.3111
 20
222.6833
 30
0.0
 10
308.3111
 20
221.3922
 30
0.0
 10
308.3111
 20
221.3922
 30
0.0
  0
SPLINE
  5
BC
330
1F
100
AcDbEntity
  8
DEFPOINTS
370
    25
100
AcDbSpline
210
0.0
220
0.0
230
1.0
 70
    24
 71
     3
 72
     8
 73
     4
 74
     0
 42
0.0000000001
 43
0.0000000001
 40
0.0
 40
0.0
 40
0.0
 40
0.0
 40
1.0
 40
1.0
 40
1.0
 40
1.0
 10
308.3111
 20
220.736
 30
0.0
 10
308.3111
 20
220.736
 30
0.0
 10
308.3111
 20
219.4237
 30
0.0
 10
308.3111
 20
219.4237
 30
0.0
  0
SPLINE
  5
BD
330
1F
100
AcDbEntity
  8
DEFPOINTS
370
    25
100
AcDbSpline
210
0.0
220
0.0
230
1.0
 70
    24
 71
     3
 72
     8
 73
     4
 74
     0
 42
0.0000000001
 43
0.0000000001
 40
0.0
 40
0.0
 40
0.0
 40
0.0
 40
1.0
 40
1.0
 40
1.0
 40
1.0
 10
308.3111
 20
218.7675
 30
0.0
 10
308.3111
 20
218.7675
 30
0.0
 10
308.3111
 20
217.4763
 30
0.0
 10
308.3111
 20
217.4763
 30
0.0
  0
SPLINE
  5
BE
330
1F
100
AcDbEntity
  8
DEFPOINTS
370
    25
100
AcDbSpline
210
0.0
220
0.0
230
1.0
 70
    24
 71
     3
 72
     8
 73
     4
 74
     0
 42
0.0000000001
 43
0.0000000001
 40
0.0
 40
0.0
 40
0.0
 40
0.0
 40
1.0
 40
1.0
 40
1.0
 40
1.0
 10
308.3111
 20
216.8202
 30
0.0
 10
308.3111
 20
216.8202
 30
0.0
 10
308.3111
 20
215.5078
 30
0.0
 10
308.3111
 20
215.5078
 30
0.0
  0
SPLINE
  5
BF
330
1F
100
AcDbEntity
  8
DEFPOINTS
370
    25
100
AcDbSpline
210
0.0
220
0.0
230
1.0
 70
    24
 71
     3
 72
     8
 73
     4
 74
     0
 42
0.0000000001
 43
0.0000000001
 40
0.0
 40
0.0
 40
0.0
 40
0.0
 40
1.0
 40
1.0
 40
1.0
 40
1.0
 10
308.3111
 20
214.8517
 30
0.0
 10
308.3111
 20
214.8517
 30
0.0
 10
308.3111
 20
213.5393
 30
0.0
 10
308.3111
 20
213.5393
 30
0.0
  0
SPLINE
  5
C0
330
1F
100
AcDbEntity
  8
DEFPOINTS
370
    25
100
AcDbSpline
210
0.0
220
0.0
230
1.0
 70
    24
 71
     3
 72
     8
 73
     4
 74
     0
 42
0.0000000001
 43
0.0000000001
 40
0.0
 40
0.0
 40
0.0
 40
0.0
 40
1.0
 40
1.0
 40
1.0
 40
1.0
 10
308.3111
 20
212.9043
 30
0.0
 10
308.3111
 20
212.9043
 30
0.0
 10
308.3111
 20
211.592
 30
0.0
 10
308.3111
 20
211.592
 30
0.0
  0
SPLINE
  5
C1
330
1F
100
AcDbEntity
  8
DEFPOINTS
370
    25
100
AcDbSpline
210
0.0
220
0.0
230
1.0
 70
    24
 71
     3
 72
     8
 73
     4
 74
     0
 42
0.0000000001
 43
0.0000000001
 40
0.0
 40
0.0
 40
0.0
 40
0.0
 40
1.0
 40
1.0
 40
1.0
 40
1.0
 10
308.3111
 20
210.9358
 30
0.0
 10
308.3111
 20
210.9358
 30
0.0
 10
308.3111
 20
209.6235
 30
0.0
 10
308.3111
 20
209.6235
 30
0.0
  0
SPLINE
  5
C2
330
1F
100
AcDbEntity
  8
DEFPOINTS
370
    25
100
AcDbSpline
210
0.0
220
0.0
230
1.0
 70
    24
 71
     3
 72
     8
 73
     4
 74
     0
 42
0.0000000001
 43
0.0000000001
 40
0.0
 40
0.0
 40
0.0
 40
0.0
 40
1.0
 40
1.0
 40
1.0
 40
1.0
 10
308.3111
 20
208.9885
 30
0.0
 10
308.3111
 20
208.9885
 30
0.0
 10
308.3111
 20
207.6762
 30
0.0
 10
308.3111
 20
207.6762
 30
0.0
  0
SPLINE
  5
C3
330
1F
100
AcDbEntity
  8
DEFPOINTS
370
    25
100
AcDbSpline
210
0.0
220
0.0
230
1.0
 70
    24
 71
     3
 72
     8
 73
     4
 74
     0
 42
0.0000000001
 43
0.0000000001
 40
0.0
 40
0.0
 40
0.0
 40
0.0
 40
1.0
 40
1.0
 40
1.0
 40
1.0
 10
308.3111
 20
207.02
 30
0.0
 10
308.3111
 20
207.02
 30
0.0
 10
308.3111
 20
205.7077
 30
0.0
 10
308.3111
 20
205.7077
 30
0.0
  0
SPLINE
  5
C4
330
1F
100
AcDbEntity
  8
DEFPOINTS
370
    25
100
AcDbSpline
210
0.0
220
0.0
230
1.0
 70
    24
 71
     3
 72
     8
 73
     4
 74
     0
 42
0.0000000001
 43
0.0000000001
 40
0.0
 40
0.0
 40
0.0
 40
0.0
 40
1.0
 40
1.0
 40
1.0
 40
1.0
 10
308.3111
 20
205.0727
 30
0.0
 10
308.3111
 20
205.0727
 30
0.0
 10
308.3111
 20
203.7603
 30
0.0
 10
308.3111
 20
203.7603
 30
0.0
  0
SPLINE
  5
C5
330
1F
100
AcDbEntity
  8
DEFPOINTS
370
    25
100
AcDbSpline
210
0.0
220
0.0
230
1.0
 70
    24
 71
     3
 72
     8
 73
     4
 74
     0
 42
0.0000000001
 43
0.0000000001
 40
0.0
 40
0.0
 40
0.0
 40
0.0
 40
1.0
 40
1.0
 40
1.0
 40
1.0
 10
308.3111
 20
203.1042
 30
0.0
 10
308.3111
 20
203.1042
 30
0.0
 10
308.3111
 20
201.7918
 30
0.0
 10
308.3111
 20
201.7918
 30
0.0
  0
SPLINE
  5
C6
330
1F
100
AcDbEntity
  8
DEFPOINTS
370
    25
100
AcDbSpline
210
0.0
220
0.0
230
1.0
 70
    24
 71
     3
 72
     8
 73
     4
 74
     0
 42
0.0000000001
 43
0.0000000001
 40
0.0
 40
0.0
 40
0.0
 40
0.0
 40
1.0
 40
1.0
 40
1.0
 40
1.0
 10
308.3111
 20
201.1568
 30
0.0
 10
308.3111
 20
201.1568
 30
0.0
 10
308.3111
 20
199.8445
 30
0.0
 10
308.3111
 20
199.8445
 30
0.0
  0
SPLINE
  5
C7
330
1F
100
AcDbEntity
  8
DEFPOINTS
370
    25
100
AcDbSpline
210
0.0
220
0.0
230
1.0
 70
    24
 71
     3
 72
     8
 73
     4
 74
     0
 42
0.0000000001
 43
0.0000000001
 40
0.0
 40
0.0
 40
0.0
 40
0.0
 40
1.0
 40
1.0
 40
1.0
 40
1.0
 10
308.3111
 20
199.1883
 30
0.0
 10
308.3111
 20
199.1883
 30
0.0
 10
308.3111
 20
197.876
 30
0.0
 10
308.3111
 20
197.876
 30
0.0
  0
SPLINE
  5
C8
330
1F
100
AcDbEntity
  8
DEFPOINTS
370
    25
100
AcDbSpline
210
0.0
220
0.0
230
1.0
 70
    24
 71
     3
 72
     8
 73
     4
 74
     0
 42
0.0000000001
 43
0.0000000001
 40
0.0
 40
0.0
 40
0.0
 40
0.0
 40
1.0
 40
1.0
 40
1.0
 40
1.0
 10
308.3111
 20
197.241
 30
0.0
 10
308.3111
 20
197.241
 30
0.0
 10
308.3111
 20
195.9287
 30
0.0
 10
308.3111
 20
195.9287
 30
0.0
  0
SPLINE
  5
C9
330
1F
100
AcDbEntity
  8
DEFPOINTS
370
    25
100
AcDbSpline
210
0.0
220
0.0
230
1.0
 70
    24
 71
     3
 72
     8
 73
     4
 74
     0
 42
0.0000000001
 43
0.0000000001
 40
0.0
 40
0.0
 40
0.0
 40
0.0
 40
1.0
 40
1.0
 40
1.0
 40
1.0
 10
308.3111
 20
195.2725
 30
0.0
 10
308.3111
 20
195.2725
 30
0.0
 10
308.3111
 20
193.9602
 30
0.0
 10
308.3111
 20
193.9602
 30
0.0
  0
SPLINE
  5
CA
330
1F
100
AcDbEntity
  8
DEFPOINTS
370
    25
100
AcDbSpline
210
0.0
220
0.0
230
1.0
 70
    24
 71
     3
 72
     8
 73
     4
 74
     0
 42
0.0000000001
 43
0.0000000001
 40
0.0
 40
0.0
 40
0.0
 40
0.0
 40
1.0
 40
1.0
 40
1.0
 40
1.0
 10
308.3111
 20
193.3252
 30
0.0
 10
308.3111
 20
193.3252
 30
0.0
 10
308.3111
 20
192.0128
 30
0.0
 10
308.3111
 20
192.0128
 30
0.0
  0
SPLINE
  5
CB
330
1F
100
AcDbEntity
  8
DEFPOINTS
370
    25
100
AcDbSpline
210
0.0
220
0.0
230
1.0
 70
    24
 71
     3
 72
     8
 73
     4
 74
     0
 42
0.0000000001
 43
0.0000000001
 40
0.0
 40
0.0
 40
0.0
 40
0.0
 40
1.0
 40
1.0
 40
1.0
 40
1.0
 10
308.3111
 20
191.3567
 30
0.0
 10
308.3111
 20
191.3567
 30
0.0
 10
308.3111
 20
190.0443
 30
0.0
 10
308.3111
 20
190.0443
 30
0.0
  0
SPLINE
  5
CC
330
1F
100
AcDbEntity
  8
DEFPOINTS
370
    25
100
AcDbSpline
210
0.0
220
0.0
230
1.0
 70
    24
 71
     3
 72
     8
 73
     4
 74
     0
 42
0.0000000001
 43
0.0000000001
 40
0.0
 40
0.0
 40
0.0
 40
0.0
 40
1.0
 40
1.0
 40
1.0
 40
1.0
 10
308.3111
 20
189.4093
 30
0.0
 10
308.3111
 20
189.4093
 30
0.0
 10
308.3111
 20
188.097
 30
0.0
 10
308.3111
 20
188.097
 30
0.0
  0
SPLINE
  5
CD
330
1F
100
AcDbEntity
  8
DEFPOINTS
370
    25
100
AcDbSpline
210
0.0
220
0.0
230
1.0
 70
    24
 71
     3
 72
     8
 73
     4
 74
     0
 42
0.0000000001
 43
0.0000000001
 40
0.0
 40
0.0
 40
0.0
 40
0.0
 40
1.0
 40
1.0
 40
1.0
 40
1.0
 10
308.3111
 20
187.4408
 30
0.0
 10
308.3111
 20
187.4408
 30
0.0
 10
308.3111
 20
186.1285
 30
0.0
 10
308.3111
 20
186.1285
 30
0.0
  0
SPLINE
  5
CE
330
1F
100
AcDbEntity
  8
DEFPOINTS
370
    25
100
AcDbSpline
210
0.0
220
0.0
230
1.0
 70
    24
 71
     3
 72
     8
 73
     4
 74
     0
 42
0.0000000001
 43
0.0000000001
 40
0.0
 40
0.0
 40
0.0
 40
0.0
 40
1.0
 40
1.0
 40
1.0
 40
1.0
 10
308.3111
 20
185.4935
 30
0.0
 10
308.3111
 20
185.4935
 30
0.0
 10
308.3111
 20
184.1812
 30
0.0
 10
308.3111
 20
184.1812
 30
0.0
  0
SPLINE
  5
CF
330
1F
100
AcDbEntity
  8
DEFPOINTS
370
    25
100
AcDbSpline
210
0.0
220
0.0
230
1.0
 70
    24
 71
     3
 72
     8
 73
     4
 74
     0
 42
0.0000000001
 43
0.0000000001
 40
0.0
 40
0.0
 40
0.0
 40
0.0
 40
1.0
 40
1.0
 40
1.0
 40
1.0
 10
308.3111
 20
183.525
 30
0.0
 10
308.3111
 20
183.525
 30
0.0
 10
308.3111
 20
182.2127
 30
0.0
 10
308.3111
 20
182.2127
 30
0.0
  0
SPLINE
  5
D0
330
1F
100
AcDbEntity
  8
DEFPOINTS
370
    25
100
AcDbSpline
210
0.0
220
0.0
230
1.0
 70
    24
 71
     3
 72
     8
 73
     4
 74
     0
 42
0.0000000001
 43
0.0000000001
 40
0.0
 40
0.0
 40
0.0
 40
0.0
 40
1.0
 40
1.0
 40
1.0
 40
1.0
 10
308.3111
 20
181.5777
 30
0.0
 10
308.3111
 20
181.5777
 30
0.0
 10
308.3111
 20
180.2653
 30
0.0
 10
308.3111
 20
180.2653
 30
0.0
  0
SPLINE
  5
D1
330
1F
100
AcDbEntity
  8
DEFPOINTS
370
    25
100
AcDbSpline
210
0.0
220
0.0
230
1.0
 70
    24
 71
     3
 72
     8
 73
     4
 74
     0
 42
0.0000000001
 43
0.0000000001
 40
0.0
 40
0.0
 40
0.0
 40
0.0
 40
1.0
 40
1.0
 40
1.0
 40
1.0
 10
308.3111
 20
179.6092
 30
0.0
 10
308.3111
 20
179.6092
 30
0.0
 10
308.3111
 20
178.2968
 30
0.0
 10
308.3111
 20
178.2968
 30
0.0
  0
SPLINE
  5
D2
330
1F
100
AcDbEntity
  8
DEFPOINTS
370
    25
100
AcDbSpline
210
0.0
220
0.0
230
1.0
 70
    24
 71
     3
 72
     8
 73
     4
 74
     0
 42
0.0000000001
 43
0.0000000001
 40
0.0
 40
0.0
 40
0.0
 40
0.0
 40
1.0
 40
1.0
 40
1.0
 40
1.0
 10
308.3111
 20
177.6618
 30
0.0
 10
308.3111
 20
177.6618
 30
0.0
 10
308.3111
 20
176.3495
 30
0.0
 10
308.3111
 20
176.3495
 30
0.0
  0
SPLINE
  5
D3
330
1F
100
AcDbEntity
  8
DEFPOINTS
370
    25
100
AcDbSpline
210
0.0
220
0.0
230
1.0
 70
    24
 71
     3
 72
     8
 73
     4
 74
     0
 42
0.0000000001
 43
0.0000000001
 40
0.0
 40
0.0
 40
0.0
 40
0.0
 40
1.0
 40
1.0
 40
1.0
 40
1.0
 10
308.3111
 20
175.6933
 30
0.0
 10
308.3111
 20
175.6933
 30
0.0
 10
308.3111
 20
174.381
 30
0.0
 10
308.3111
 20
174.381
 30
0.0
  0
SPLINE
  5
D4
330
1F
100
AcDbEntity
  8
DEFPOINTS
370
    25
100
AcDbSpline
210
0.0
220
0.0
230
1.0
 70
    24
 71
     3
 72
     8
 73
     4
 74
     0
 42
0.0000000001
 43
0.0000000001
 40
0.0
 40
0.0
 40
0.0
 40
0.0
 40
1.0
 40
1.0
 40
1.0
 40
1.0
 10
308.3111
 20
173.746
 30
0.0
 10
308.3111
 20
173.746
 30
0.0
 10
308.3111
 20
172.4337
 30
0.0
 10
308.3111
 20
172.4337
 30
0.0
  0
SPLINE
  5
D5
330
1F
100
AcDbEntity
  8
DEFPOINTS
370
    25
100
AcDbSpline
210
0.0
220
0.0
230
1.0
 70
    24
 71
     3
 72
     8
 73
     4
 74
     0
 42
0.0000000001
 43
0.0000000001
 40
0.0
 40
0.0
 40
0.0
 40
0.0
 40
1.0
 40
1.0
 40
1.0
 40
1.0
 10
308.3111
 20
171.7775
 30
0.0
 10
308.3111
 20
171.7775
 30
0.0
 10
308.3111
 20
170.4652
 30
0.0
 10
308.3111
 20
170.4652
 30
0.0
  0
SPLINE
  5
D6
330
1F
100
AcDbEntity
  8
DEFPOINTS
370
    25
100
AcDbSpline
210
0.0
220
0.0
230
1.0
 70
    24
 71
     3
 72
     8
 73
     4
 74
     0
 42
0.0000000001
 43
0.0000000001
 40
0.0
 40
0.0
 40
0.0
 40
0.0
 40
1.0
 40
1.0
 40
1.0
 40
1.0
 10
308.3111
 20
169.8302
 30
0.0
 10
308.3111
 20
169.8302
 30
0.0
 10
308.3111
 20
168.5178
 30
0.0
 10
308.3111
 20
168.5178
 30
0.0
  0
SPLINE
  5
D7
330
1F
100
AcDbEntity
  8
DEFPOINTS
370
    25
100
AcDbSpline
210
0.0
220
0.0
230
1.0
 70
    24
 71
     3
 72
     8
 73
     4
 74
     0
 42
0.0000000001
 43
0.0000000001
 40
0.0
 40
0.0
 40
0.0
 40
0.0
 40
1.0
 40
1.0
 40
1.0
 40
1.0
 10
308.3111
 20
167.8617
 30
0.0
 10
308.3111
 20
167.8617
 30
0.0
 10
308.3111
 20
166.5493
 30
0.0
 10
308.3111
 20
166.5493
 30
0.0
  0
SPLINE
  5
D8
330
1F
100
AcDbEntity
  8
DEFPOINTS
370
    25
100
AcDbSpline
210
0.0
220
0.0
230
1.0
 70
    24
 71
     3
 72
     8
 73
     4
 74
     0
 42
0.0000000001
 43
0.0000000001
 40
0.0
 40
0.0
 40
0.0
 40
0.0
 40
1.0
 40
1.0
 40
1.0
 40
1.0
 10
308.3111
 20
165.9143
 30
0.0
 10
308.3111
 20
165.9143
 30
0.0
 10
308.3111
 20
164.602
 30
0.0
 10
308.3111
 20
164.602
 30
0.0
  0
SPLINE
  5
D9
330
1F
100
AcDbEntity
  8
DEFPOINTS
370
    25
100
AcDbSpline
210
0.0
220
0.0
230
1.0
 70
    24
 71
     3
 72
     8
 73
     4
 74
     0
 42
0.0000000001
 43
0.0000000001
 40
0.0
 40
0.0
 40
0.0
 40
0.0
 40
1.0
 40
1.0
 40
1.0
 40
1.0
 10
308.3111
 20
163.9458
 30
0.0
 10
308.3111
 20
163.9458
 30
0.0
 10
308.3111
 20
162.6335
 30
0.0
 10
308.3111
 20
162.6335
 30
0.0
  0
SPLINE
  5
DA
330
1F
100
AcDbEntity
  8
DEFPOINTS
370
    25
100
AcDbSpline
210
0.0
220
0.0
230
1.0
 70
    24
 71
     3
 72
     8
 73
     4
 74
     0
 42
0.0000000001
 43
0.0000000001
 40
0.0
 40
0.0
 40
0.0
 40
0.0
 40
1.0
 40
1.0
 40
1.0
 40
1.0
 10
308.3111
 20
161.9985
 30
0.0
 10
308.3111
 20
161.9985
 30
0.0
 10
308.3111
 20
160.6862
 30
0.0
 10
308.3111
 20
160.6862
 30
0.0
  0
SPLINE
  5
DB
330
1F
100
AcDbEntity
  8
DEFPOINTS
370
    25
100
AcDbSpline
210
0.0
220
0.0
230
1.0
 70
    24
 71
     3
 72
     8
 73
     4
 74
     0
 42
0.0000000001
 43
0.0000000001
 40
0.0
 40
0.0
 40
0.0
 40
0.0
 40
1.0
 40
1.0
 40
1.0
 40
1.0
 10
308.3111
 20
160.03
 30
0.0
 10
308.3111
 20
160.03
 30
0.0
 10
308.3111
 20
158.7177
 30
0.0
 10
308.3111
 20
158.7177
 30
0.0
  0
SPLINE
  5
DC
330
1F
100
AcDbEntity
  8
DEFPOINTS
370
    25
100
AcDbSpline
210
0.0
220
0.0
230
1.0
 70
     8
 71
     3
 72
    16
 73
    12
 74
     0
 42
0.0000000001
 43
0.0000000001
 40
0.0
 40
0.0
 40
0.0
 40
0.0
 40
0.3333333333333333
 40
0.3333333333333333
 40
0.3333333333333333
 40
0.3333333333333333
 40
0.6666666666666666
 40
0.6666666666666666
 40
0.6666666666666666
 40
0.6666666666666666
 40
1.0
 40
1.0
 40
1.0
 40
1.0
 10
308.3111
 20
158.0827
 30
0.0
 10
308.3111
 20
158.0827
 30
0.0
 10
308.3111
 20
156.4528
 30
0.0
 10
308.3111
 20
156.4528
 30
0.0
 10
308.3111
 20
156.4528
 30
0.0
 10
308.3111
 20
156.4528
 30
0.0
 10
179.1732
 20
156.4528
 30
0.0
 10
179.1732
 20
156.4528
 30
0.0
 10
179.1732
 20
156.4528
 30
0.0
 10
179.1732
 20
156.4528
 30
0.0
 10
179.1732
 20
158.0827
 30
0.0
 10
179.1732
 20
158.0827
 30
0.0
  0
SPLINE
  5
DD
330
1F
100
AcDbEntity
  8
DEFPOINTS
370
    25
100
AcDbSpline
210
0.0
220
0.0
230
1.0
 70
    24
 71
     3
 72
     8
 73
     4
 74
     0
 42
0.0000000001
 43
0.0000000001
 40
0.0
 40
0.0
 40
0.0
 40
0.0
 40
1.0
 40
1.0
 40
1.0
 40
1.0
 10
179.1732
 20
158.7177
 30
0.0
 10
179.1732
 20
158.7177
 30
0.0
 10
179.1732
 20
160.03
 30
0.0
 10
179.1732
 20
160.03
 30
0.0
  0
SPLINE
  5
DE
330
1F
100
AcDbEntity
  8
DEFPOINTS
370
    25
100
AcDbSpline
210
0.0
220
0.0
230
1.0
 70
    24
 71
     3
 72
     8
 73
     4
 74
     0
 42
0.0000000001
 43
0.0000000001
 40
0.0
 40
0.0
 40
0.0
 40
0.0
 40
1.0
 40
1.0
 40
1.0
 40
1.0
 10
179.1732
 20
160.6862
 30
0.0
 10
179.1732
 20
160.6862
 30
0.0
 10
179.1732
 20
161.9985
 30
0.0
 10
179.1732
 20
161.9985
 30
0.0
  0
SPLINE
  5
DF
330
1F
100
AcDbEntity
  8
DEFPOINTS
370
    25
100
AcDbSpline
210
0.0
220
0.0
230
1.0
 70
    24
 71
     3
 72
     8
 73
     4
 74
     0
 42
0.0000000001
 43
0.0000000001
 40
0.0
 40
0.0
 40
0.0
 40
0.0
 40
1.0
 40
1.0
 40
1.0
 40
1.0
 10
179.1732
 20
162.6335
 30
0.0
 10
179.1732
 20
162.6335
 30
0.0
 10
179.1732
 20
163.9458
 30
0.0
 10
179.1732
 20
163.9458
 30
0.0
  0
SPLINE
  5
E0
330
1F
100
AcDbEntity
  8
DEFPOINTS
370
    25
100
AcDbSpline
210
0.0
220
0.0
230
1.0
 70
    24
 71
     3
 72
     8
 73
     4
 74
     0
 42
0.0000000001
 43
0.0000000001
 40
0.0
 40
0.0
 40
0.0
 40
0.0
 40
1.0
 40
1.0
 40
1.0
 40
1.0
 10
179.1732
 20
164.602
 30
0.0
 10
179.1732
 20
164.602
 30
0.0
 10
179.1732
 20
165.9143
 30
0.0
 10
179.1732
 20
165.9143
 30
0.0
  0
SPLINE
  5
E1
330
1F
100
AcDbEntity
  8
DEFPOINTS
370
    25
100
AcDbSpline
210
0.0
220
0.0
230
1.0
 70
    24
 71
     3
 72
     8
 73
     4
 74
     0
 42
0.0000000001
 43
0.0000000001
 40
0.0
 40
0.0
 40
0.0
 40
0.0
 40
1.0
 40
1.0
 40
1.0
 40
1.0
 10
179.1732
 20
166.5493
 30
0.0
 10
179.1732
 20
166.5493
 30
0.0
 10
179.1732
 20
167.8617
 30
0.0
 10
179.1732
 20
167.8617
 30
0.0
  0
SPLINE
  5
E2
330
1F
100
AcDbEntity
  8
DEFPOINTS
370
    25
100
AcDbSpline
210
0.0
220
0.0
230
1.0
 70
    24
 71
     3
 72
     8
 73
     4
 74
     0
 42
0.0000000001
 43
0.0000000001
 40
0.0
 40
0.0
 40
0.0
 40
0.0
 40
1.0
 40
1.0
 40
1.0
 40
1.0
 10
179.1732
 20
168.5178
 30
0.0
 10
179.1732
 20
168.5178
 30
0.0
 10
179.1732
 20
169.8302
 30
0.0
 10
179.1732
 20
169.8302
 30
0.0
  0
SPLINE
  5
E3
330
1F
100
AcDbEntity
  8
DEFPOINTS
370
    25
100
AcDbSpline
210
0.0
220
0.0
230
1.0
 70
    24
 71
     3
 72
     8
 73
     4
 74
     0
 42
0.0000000001
 43
0.0000000001
 40
0.0
 40
0.0
 40
0.0
 40
0.0
 40
1.0
 40
1.0
 40
1.0
 40
1.0
 10
179.1732
 20
170.4652
 30
0.0
 10
179.1732
 20
170.4652
 30
0.0
 10
179.1732
 20
171.7775
 30
0.0
 10
179.1732
 20
171.7775
 30
0.0
  0
SPLINE
  5
E4
330
1F
100
AcDbEntity
  8
DEFPOINTS
370
    25
100
AcDbSpline
210
0.0
220
0.0
230
1.0
 70
    24
 71
     3
 72
     8
 73
     4
 74
     0
 42
0.0000000001
 43
0.0000000001
 40
0.0
 40
0.0
 40
0.0
 40
0.0
 40
1.0
 40
1.0
 40
1.0
 40
1.0
 10
179.1732
 20
172.4337
 30
0.0
 10
179.1732
 20
172.4337
 30
0.0
 10
179.1732
 20
173.746
 30
0.0
 10
179.1732
 20
173.746
 30
0.0
  0
SPLINE
  5
E5
330
1F
100
AcDbEntity
  8
DEFPOINTS
370
    25
100
AcDbSpline
210
0.0
220
0.0
230
1.0
 70
    24
 71
     3
 72
     8
 73
     4
 74
     0
 42
0.0000000001
 43
0.0000000001
 40
0.0
 40
0.0
 40
0.0
 40
0.0
 40
1.0
 40
1.0
 40
1.0
 40
1.0
 10
179.1732
 20
174.381
 30
0.0
 10
179.1732
 20
174.381
 30
0.0
 10
179.1732
 20
175.6933
 30
0.0
 10
179.1732
 20
175.6933
 30
0.0
  0
SPLINE
  5
E6
330
1F
100
AcDbEntity
  8
DEFPOINTS
370
    25
100
AcDbSpline
210
0.0
220
0.0
230
1.0
 70
    24
 71
     3
 72
     8
 73
     4
 74
     0
 42
0.0000000001
 43
0.0000000001
 40
0.0
 40
0.0
 40
0.0
 40
0.0
 40
1.0
 40
1.0
 40
1.0
 40
1.0
 10
179.1732
 20
176.3495
 30
0.0
 10
179.1732
 20
176.3495
 30
0.0
 10
179.1732
 20
177.6618
 30
0.0
 10
179.1732
 20
177.6618
 30
0.0
  0
SPLINE
  5
E7
330
1F
100
AcDbEntity
  8
DEFPOINTS
370
    25
100
AcDbSpline
210
0.0
220
0.0
230
1.0
 70
    24
 71
     3
 72
     8
 73
     4
 74
     0
 42
0.0000000001
 43
0.0000000001
 40
0.0
 40
0.0
 40
0.0
 40
0.0
 40
1.0
 40
1.0
 40
1.0
 40
1.0
 10
179.1732
 20
178.2968
 30
0.0
 10
179.1732
 20
178.2968
 30
0.0
 10
179.1732
 20
179.6092
 30
0.0
 10
179.1732
 20
179.6092
 30
0.0
  0
SPLINE
  5
E8
330
1F
100
AcDbEntity
  8
DEFPOINTS
370
    25
100
AcDbSpline
210
0.0
220
0.0
230
1.0
 70
    24
 71
     3
 72
     8
 73
     4
 74
     0
 42
0.0000000001
 43
0.0000000001
 40
0.0
 40
0.0
 40
0.0
 40
0.0
 40
1.0
 40
1.0
 40
1.0
 40
1.0
 10
179.1732
 20
180.2653
 30
0.0
 10
179.1732
 20
180.2653
 30
0.0
 10
179.1732
 20
181.5777
 30
0.0
 10
179.1732
 20
181.5777
 30
0.0
  0
SPLINE
  5
E9
330
1F
100
AcDbEntity
  8
DEFPOINTS
370
    25
100
AcDbSpline
210
0.0
220
0.0
230
1.0
 70
    24
 71
     3
 72
     8
 73
     4
 74
     0
 42
0.0000000001
 43
0.0000000001
 40
0.0
 40
0.0
 40
0.0
 40
0.0
 40
1.0
 40
1.0
 40
1.0
 40
1.0
 10
179.1732
 20
182.2127
 30
0.0
 10
179.1732
 20
182.2127
 30
0.0
 10
179.1732
 20
183.525
 30
0.0
 10
179.1732
 20
183.525
 30
0.0
  0
SPLINE
  5
EA
330
1F
100
AcDbEntity
  8
DEFPOINTS
370
    25
100
AcDbSpline
210
0.0
220
0.0
230
1.0
 70
    24
 71
     3
 72
     8
 73
     4
 74
     0
 42
0.0000000001
 43
0.0000000001
 40
0.0
 40
0.0
 40
0.0
 40
0.0
 40
1.0
 40
1.0
 40
1.0
 40
1.0
 10
179.1732
 20
184.1812
 30
0.0
 10
179.1732
 20
184.1812
 30
0.0
 10
179.1732
 20
185.4935
 30
0.0
 10
179.1732
 20
185.4935
 30
0.0
  0
SPLINE
  5
EB
330
1F
100
AcDbEntity
  8
DEFPOINTS
370
    25
100
AcDbSpline
210
0.0
220
0.0
230
1.0
 70
    24
 71
     3
 72
     8
 73
     4
 74
     0
 42
0.0000000001
 43
0.0000000001
 40
0.0
 40
0.0
 40
0.0
 40
0.0
 40
1.0
 40
1.0
 40
1.0
 40
1.0
 10
179.1732
 20
186.1285
 30
0.0
 10
179.1732
 20
186.1285
 30
0.0
 10
179.1732
 20
187.4408
 30
0.0
 10
179.1732
 20
187.4408
 30
0.0
  0
SPLINE
  5
EC
330
1F
100
AcDbEntity
  8
DEFPOINTS
370
    25
100
AcDbSpline
210
0.0
220
0.0
230
1.0
 70
    24
 71
     3
 72
     8
 73
     4
 74
     0
 42
0.0000000001
 43
0.0000000001
 40
0.0
 40
0.0
 40
0.0
 40
0.0
 40
1.0
 40
1.0
 40
1.0
 40
1.0
 10
179.1732
 20
188.097
 30
0.0
 10
179.1732
 20
188.097
 30
0.0
 10
179.1732
 20
189.4093
 30
0.0
 10
179.1732
 20
189.4093
 30
0.0
  0
SPLINE
  5
ED
330
1F
100
AcDbEntity
  8
DEFPOINTS
370
    25
100
AcDbSpline
210
0.0
220
0.0
230
1.0
 70
    24
 71
     3
 72
     8
 73
     4
 74
     0
 42
0.0000000001
 43
0.0000000001
 40
0.0
 40
0.0
 40
0.0
 40
0.0
 40
1.0
 40
1.0
 40
1.0
 40
1.0
 10
179.1732
 20
190.0443
 30
0.0
 10
179.1732
 20
190.0443
 30
0.0
 10
179.1732
 20
191.3567
 30
0.0
 10
179.1732
 20
191.3567
 30
0.0
  0
SPLINE
  5
EE
330
1F
100
AcDbEntity
  8
DEFPOINTS
370
    25
100
AcDbSpline
210
0.0
220
0.0
230
1.0
 70
    24
 71
     3
 72
     8
 73
     4
 74
     0
 42
0.0000000001
 43
0.0000000001
 40
0.0
 40
0.0
 40
0.0
 40
0.0
 40
1.0
 40
1.0
 40
1.0
 40
1.0
 10
179.1732
 20
192.0128
 30
0.0
 10
179.1732
 20
192.0128
 30
0.0
 10
179.1732
 20
193.3252
 30
0.0
 10
179.1732
 20
193.3252
 30
0.0
  0
SPLINE
  5
EF
330
1F
100
AcDbEntity
  8
DEFPOINTS
370
    25
100
AcDbSpline
210
0.0
220
0.0
230
1.0
 70
    24
 71
     3
 72
     8
 73
     4
 74
     0
 42
0.0000000001
 43
0.0000000001
 40
0.0
 40
0.0
 40
0.0
 40
0.0
 40
1.0
 40
1.0
 40
1.0
 40
1.0
 10
179.1732
 20
193.9602
 30
0.0
 10
179.1732
 20
193.9602
 30
0.0
 10
179.1732
 20
195.2725
 30
0.0
 10
179.1732
 20
195.2725
 30
0.0
  0
SPLINE
  5
F0
330
1F
100
AcDbEntity
  8
DEFPOINTS
370
    25
100
AcDbSpline
210
0.0
220
0.0
230
1.0
 70
    24
 71
     3
 72
     8
 73
     4
 74
     0
 42
0.0000000001
 43
0.0000000001
 40
0.0
 40
0.0
 40
0.0
 40
0.0
 40
1.0
 40
1.0
 40
1.0
 40
1.0
 10
179.1732
 20
195.9287
 30
0.0
 10
179.1732
 20
195.9287
 30
0.0
 10
179.1732
 20
197.241
 30
0.0
 10
179.1732
 20
197.241
 30
0.0
  0
SPLINE
  5
F1
330
1F
100
AcDbEntity
  8
DEFPOINTS
370
    25
100
AcDbSpline
210
0.0
220
0.0
230
1.0
 70
    24
 71
     3
 72
     8
 73
     4
 74
     0
 42
0.0000000001
 43
0.0000000001
 40
0.0
 40
0.0
 40
0.0
 40
0.0
 40
1.0
 40
1.0
 40
1.0
 40
1.0
 10
179.1732
 20
197.876
 30
0.0
 10
179.1732
 20
197.876
 30
0.0
 10
179.1732
 20
199.1883
 30
0.0
 10
179.1732
 20
199.1883
 30
0.0
  0
SPLINE
  5
F2
330
1F
100
AcDbEntity
  8
DEFPOINTS
370
    25
100
AcDbSpline
210
0.0
220
0.0
230
1.0
 70
    24
 71
     3
 72
     8
 73
     4
 74
     0
 42
0.0000000001
 43
0.0000000001
 40
0.0
 40
0.0
 40
0.0
 40
0.0
 40
1.0
 40
1.0
 40
1.0
 40
1.0
 10
179.1732
 20
199.8445
 30
0.0
 10
179.1732
 20
199.8445
 30
0.0
 10
179.1732
 20
201.1568
 30
0.0
 10
179.1732
 20
201.1568
 30
0.0
  0
SPLINE
  5
F3
330
1F
100
AcDbEntity
  8
DEFPOINTS
370
    25
100
AcDbSpline
210
0.0
220
0.0
230
1.0
 70
    24
 71
     3
 72
     8
 73
     4
 74
     0
 42
0.0000000001
 43
0.0000000001
 40
0.0
 40
0.0
 40
0.0
 40
0.0
 40
1.0
 40
1.0
 40
1.0
 40
1.0
 10
179.1732
 20
201.7918
 30
0.0
 10
179.1732
 20
201.7918
 30
0.0
 10
179.1732
 20
203.1042
 30
0.0
 10
179.1732
 20
203.1042
 30
0.0
  0
SPLINE
  5
F4
330
1F
100
AcDbEntity
  8
DEFPOINTS
370
    25
100
AcDbSpline
210
0.0
220
0.0
230
1.0
 70
    24
 71
     3
 72
     8
 73
     4
 74
     0
 42
0.0000000001
 43
0.0000000001
 40
0.0
 40
0.0
 40
0.0
 40
0.0
 40
1.0
 40
1.0
 40
1.0
 40
1.0
 10
179.1732
 20
203.7603
 30
0.0
 10
179.1732
 20
203.7603
 30
0.0
 10
179.1732
 20
205.0727
 30
0.0
 10
179.1732
 20
205.0727
 30
0.0
  0
SPLINE
  5
F5
330
1F
100
AcDbEntity
  8
DEFPOINTS
370
    25
100
AcDbSpline
210
0.0
220
0.0
230
1.0
 70
    24
 71
     3
 72
     8
 73
     4
 74
     0
 42
0.0000000001
 43
0.0000000001
 40
0.0
 40
0.0
 40
0.0
 40
0.0
 40
1.0
 40
1.0
 40
1.0
 40
1.0
 10
179.1732
 20
205.7077
 30
0.0
 10
179.1732
 20
205.7077
 30
0.0
 10
179.1732
 20
207.02
 30
0.0
 10
179.1732
 20
207.02
 30
0.0
  0
SPLINE
  5
F6
330
1F
100
AcDbEntity
  8
DEFPOINTS
370
    25
100
AcDbSpline
210
0.0
220
0.0
230
1.0
 70
    24
 71
     3
 72
     8
 73
     4
 74
     0
 42
0.0000000001
 43
0.0000000001
 40
0.0
 40
0.0
 40
0.0
 40
0.0
 40
1.0
 40
1.0
 40
1.0
 40
1.0
 10
179.1732
 20
207.6762
 30
0.0
 10
179.1732
 20
207.6762
 30
0.0
 10
179.1732
 20
208.9885
 30
0.0
 10
179.1732
 20
208.9885
 30
0.0
  0
SPLINE
  5
F7
330
1F
100
AcDbEntity
  8
DEFPOINTS
370
    25
100
AcDbSpline
210
0.0
220
0.0
230
1.0
 70
    24
 71
     3
 72
     8
 73
     4
 74
     0
 42
0.0000000001
 43
0.0000000001
 40
0.0
 40
0.0
 40
0.0
 40
0.0
 40
1.0
 40
1.0
 40
1.0
 40
1.0
 10
179.1732
 20
209.6235
 30
0.0
 10
179.1732
 20
209.6235
 30
0.0
 10
179.1732
 20
210.9358
 30
0.0
 10
179.1732
 20
210.9358
 30
0.0
  0
SPLINE
  5
F8
330
1F
100
AcDbEntity
  8
DEFPOINTS
370
    25
100
AcDbSpline
210
0.0
220
0.0
230
1.0
 70
    24
 71
     3
 72
     8
 73
     4
 74
     0
 42
0.0000000001
 43
0.0000000001
 40
0.0
 40
0.0
 40
0.0
 40
0.0
 40
1.0
 40
1.0
 40
1.0
 40
1.0
 10
179.1732
 20
211.592
 30
0.0
 10
179.1732
 20
211.592
 30
0.0
 10
179.1732
 20
212.9043
 30
0.0
 10
179.1732
 20
212.9043
 30
0.0
  0
SPLINE
  5
F9
330
1F
100
AcDbEntity
  8
DEFPOINTS
370
    25
100
AcDbSpline
210
0.0
220
0.0
230
1.0
 70
    24
 71
     3
 72
     8
 73
     4
 74
     0
 42
0.0000000001
 43
0.0000000001
 40
0.0
 40
0.0
 40
0.0
 40
0.0
 40
1.0
 40
1.0
 40
1.0
 40
1.0
 10
179.1732
 20
213.5393
 30
0.0
 10
179.1732
 20
213.5393
 30
0.0
 10
179.1732
 20
214.8517
 30
0.0
 10
179.1732
 20
214.8517
 30
0.0
  0
SPLINE
  5
FA
330
1F
100
AcDbEntity
  8
DEFPOINTS
370
    25
100
AcDbSpline
210
0.0
220
0.0
230
1.0
 70
    24
 71
     3
 72
     8
 73
     4
 74
     0
 42
0.0000000001
 43
0.0000000001
 40
0.0
 40
0.0
 40
0.0
 40
0.0
 40
1.0
 40
1.0
 40
1.0
 40
1.0
 10
179.1732
 20
215.5078
 30
0.0
 10
179.1732
 20
215.5078
 30
0.0
 10
179.1732
 20
216.8202
 30
0.0
 10
179.1732
 20
216.8202
 30
0.0
  0
SPLINE
  5
FB
330
1F
100
AcDbEntity
  8
DEFPOINTS
370
    25
100
AcDbSpline
210
0.0
220
0.0
230
1.0
 70
    24
 71
     3
 72
     8
 73
     4
 74
     0
 42
0.0000000001
 43
0.0000000001
 40
0.0
 40
0.0
 40
0.0
 40
0.0
 40
1.0
 40
1.0
 40
1.0
 40
1.0
 10
179.1732
 20
217.4763
 30
0.0
 10
179.1732
 20
217.4763
 30
0.0
 10
179.1732
 20
218.7675
 30
0.0
 10
179.1732
 20
218.7675
 30
0.0
  0
SPLINE
  5
FC
330
1F
100
AcDbEntity
  8
DEFPOINTS
370
    25
100
AcDbSpline
210
0.0
220
0.0
230
1.0
 70
    24
 71
     3
 72
     8
 73
     4
 74
     0
 42
0.0000000001
 43
0.0000000001
 40
0.0
 40
0.0
 40
0.0
 40
0.0
 40
1.0
 40
1.0
 40
1.0
 40
1.0
 10
179.1732
 20
219.4237
 30
0.0
 10
179.1732
 20
219.4237
 30
0.0
 10
179.1732
 20
220.736
 30
0.0
 10
179.1732
 20
220.736
 30
0.0
  0
SPLINE
  5
FD
330
1F
100
AcDbEntity
  8
DEFPOINTS
370
    25
100
AcDbSpline
210
0.0
220
0.0
230
1.0
 70
    24
 71
     3
 72
     8
 73
     4
 74
     0
 42
0.0000000001
 43
0.0000000001
 40
0.0
 40
0.0
 40
0.0
 40
0.0
 40
1.0
 40
1.0
 40
1.0
 40
1.0
 10
179.1732
 20
221.3922
 30
0.0
 10
179.1732
 20
221.3922
 30
0.0
 10
179.1732
 20
222.6833
 30
0.0
 10
179.1732
 20
222.6833
 30
0.0
  0
SPLINE
  5
FE
330
1F
100
AcDbEntity
  8
DEFPOINTS
370
    25
100
AcDbSpline
210
0.0
220
0.0
230
1.0
 70
    24
 71
     3
 72
     8
 73
     4
 74
     0
 42
0.0000000001
 43
0.0000000001
 40
0.0
 40
0.0
 40
0.0
 40
0.0
 40
1.0
 40
1.0
 40
1.0
 40
1.0
 10
179.1732
 20
223.3395
 30
0.0
 10
179.1732
 20
223.3395
 30
0.0
 10
179.1732
 20
224.6518
 30
0.0
 10
179.1732
 20
224.6518
 30
0.0
  0
SPLINE
  5
FF
330
1F
100
AcDbEntity
  8
DEFPOINTS
370
    25
100
AcDbSpline
210
0.0
220
0.0
230
1.0
 70
    24
 71
     3
 72
     8
 73
     4
 74
     0
 42
0.0000000001
 43
0.0000000001
 40
0.0
 40
0.0
 40
0.0
 40
0.0
 40
1.0
 40
1.0
 40
1.0
 40
1.0
 10
179.1732
 20
225.308
 30
0.0
 10
179.1732
 20
225.308
 30
0.0
 10
179.1732
 20
226.5992
 30
0.0
 10
179.1732
 20
226.5992
 30
0.0
  0
SPLINE
  5
100
330
1F
100
AcDbEntity
  8
DEFPOINTS
370
    25
100
AcDbSpline
210
0.0
220
0.0
230
1.0
 70
    24
 71
     3
 72
     8
 73
     4
 74
     0
 42
0.0000000001
 43
0.0000000001
 40
0.0
 40
0.0
 40
0.0
 40
0.0
 40
1.0
 40
1.0
 40
1.0
 40
1.0
 10
179.1732
 20
227.2553
 30
0.0
 10
179.1732
 20
227.2553
 30
0.0
 10
179.1732
 20
228.5677
 30
0.0
 10
179.1732
 20
228.5677
 30
0.0
  0
SPLINE
  5
101
330
1F
100
AcDbEntity
  8
DEFPOINTS
370
    25
100
AcDbSpline
210
0.0
220
0.0
230
1.0
 70
    24
 71
     3
 72
     8
 73
     4
 74
     0
 42
0.0000000001
 43
0.0000000001
 40
0.0
 40
0.0
 40
0.0
 40
0.0
 40
1.0
 40
1.0
 40
1.0
 40
1.0
 10
179.1732
 20
229.2238
 30
0.0
 10
179.1732
 20
229.2238
 30
0.0
 10
179.1732
 20
230.515
 30
0.0
 10
179.1732
 20
230.515
 30
0.0
  0
SPLINE
  5
102
330
1F
100
AcDbEntity
  8
DEFPOINTS
370
    25
100
AcDbSpline
210
0.0
220
0.0
230
1.0
 70
    24
 71
     3
 72
     8
 73
     4
 74
     0
 42
0.0000000001
 43
0.0000000001
 40
0.0
 40
0.0
 40
0.0
 40
0.0
 40
1.0
 40
1.0
 40
1.0
 40
1.0
 10
179.1732
 20
231.1712
 30
0.0
 10
179.1732
 20
231.1712
 30
0.0
 10
179.1732
 20
232.4835
 30
0.0
 10
179.1732
 20
232.4835
 30
0.0
  0
SPLINE
  5
103
330
1F
100
AcDbEntity
  8
DEFPOINTS
370
    25
100
AcDbSpline
210
0.0
220
0.0
230
1.0
 70
    24
 71
     3
 72
     8
 73
     4
 74
     0
 42
0.0000000001
 43
0.0000000001
 40
0.0
 40
0.0
 40
0.0
 40
0.0
 40
1.0
 40
1.0
 40
1.0
 40
1.0
 10
179.1732
 20
233.1397
 30
0.0
 10
179.1732
 20
233.1397
 30
0.0
 10
179.1732
 20
234.4308
 30
0.0
 10
179.1732
 20
234.4308
 30
0.0
  0
SPLINE
  5
104
330
1F
100
AcDbEntity
  8
DEFPOINTS
370
    25
100
AcDbSpline
210
0.0
220
0.0
230
1.0
 70
    24
 71
     3
 72
     8
 73
     4
 74
     0
 42
0.0000000001
 43
0.0000000001
 40
0.0
 40
0.0
 40
0.0
 40
0.0
 40
1.0
 40
1.0
 40
1.0
 40
1.0
 10
179.1732
 20
235.087
 30
0.0
 10
179.1732
 20
235.087
 30
0.0
 10
179.1732
 20
236.6957
 30
0.0
 10
179.1732
 20
236.6957
 30
0.0
  0
SPLINE
  5
105
330
1F
100
AcDbEntity
  8
DEFPOINTS
370
    25
100
AcDbSpline
210
0.0
220
0.0
230
1.0
 70
    24
 71
     3
 72
     8
 73
     4
 74
     0
 42
0.0000000001
 43
0.0000000001
 40
0.0
 40
0.0
 40
0.0
 40
0.0
 40
1.0
 40
1.0
 40
1.0
 40
1.0
 10
182.3059
 20
238.7912
 30
0.0
 10
182.3059
 20
238.7912
 30
0.0
 10
183.7029
 20
238.7912
 30
0.0
 10
183.7029
 20
238.7912
 30
0.0
  0
SPLINE
  5
106
330
1F
100
AcDbEntity
  8
DEFPOINTS
370
    25
100
AcDbSpline
210
0.0
220
0.0
230
1.0
 70
    24
 71
     3
 72
     8
 73
     4
 74
     0
 42
0.0000000001
 43
0.0000000001
 40
0.0
 40
0.0
 40
0.0
 40
0.0
 40
1.0
 40
1.0
 40
1.0
 40
1.0
 10
184.3591
 20
238.7912
 30
0.0
 10
184.3591
 20
238.7912
 30
0.0
 10
185.6502
 20
238.7912
 30
0.0
 10
185.6502
 20
238.7912
 30
0.0
  0
SPLINE
  5
107
330
1F
100
AcDbEntity
  8
DEFPOINTS
370
    25
100
AcDbSpline
210
0.0
220
0.0
230
1.0
 70
    24
 71
     3
 72
     8
 73
     4
 74
     0
 42
0.0000000001
 43
0.0000000001
 40
0.0
 40
0.0
 40
0.0
 40
0.0
 40
1.0
 40
1.0
 40
1.0
 40
1.0
 10
186.3064
 20
238.7912
 30
0.0
 10
186.3064
 20
238.7912
 30
0.0
 10
187.6187
 20
238.7912
 30
0.0
 10
187.6187
 20
238.7912
 30
0.0
  0
SPLINE
  5
108
330
1F
100
AcDbEntity
  8
DEFPOINTS
370
    25
100
AcDbSpline
210
0.0
220
0.0
230
1.0
 70
    24
 71
     3
 72
     8
 73
     4
 74
     0
 42
0.0000000001
 43
0.0000000001
 40
0.0
 40
0.0
 40
0.0
 40
0.0
 40
1.0
 40
1.0
 40
1.0
 40
1.0
 10
188.2749
 20
238.7912
 30
0.0
 10
188.2749
 20
238.7912
 30
0.0
 10
189.5661
 20
238.7912
 30
0.0
 10
189.5661
 20
238.7912
 30
0.0
  0
SPLINE
  5
109
330
1F
100
AcDbEntity
  8
DEFPOINTS
370
    25
100
AcDbSpline
210
0.0
220
0.0
230
1.0
 70
    24
 71
     3
 72
     8
 73
     4
 74
     0
 42
0.0000000001
 43
0.0000000001
 40
0.0
 40
0.0
 40
0.0
 40
0.0
 40
1.0
 40
1.0
 40
1.0
 40
1.0
 10
190.2222
 20
238.7912
 30
0.0
 10
190.2222
 20
238.7912
 30
0.0
 10
191.5346
 20
238.7912
 30
0.0
 10
191.5346
 20
238.7912
 30
0.0
  0
SPLINE
  5
10A
330
1F
100
AcDbEntity
  8
DEFPOINTS
370
    25
100
AcDbSpline
210
0.0
220
0.0
230
1.0
 70
    24
 71
     3
 72
     8
 73
     4
 74
     0
 42
0.0000000001
 43
0.0000000001
 40
0.0
 40
0.0
 40
0.0
 40
0.0
 40
1.0
 40
1.0
 40
1.0
 40
1.0
 10
192.1907
 20
238.7912
 30
0.0
 10
192.1907
 20
238.7912
 30
0.0
 10
193.4819
 20
238.7912
 30
0.0
 10
193.4819
 20
238.7912
 30
0.0
  0
SPLINE
  5
10B
330
1F
100
AcDbEntity
  8
DEFPOINTS
370
    25
100
AcDbSpline
210
0.0
220
0.0
230
1.0
 70
    24
 71
     3
 72
     8
 73
     4
 74
     0
 42
0.0000000001
 43
0.0000000001
 40
0.0
 40
0.0
 40
0.0
 40
0.0
 40
1.0
 40
1.0
 40
1.0
 40
1.0
 10
194.1381
 20
238.7912
 30
0.0
 10
194.1381
 20
238.7912
 30
0.0
 10
195.4504
 20
238.7912
 30
0.0
 10
195.4504
 20
238.7912
 30
0.0
  0
SPLINE
  5
10C
330
1F
100
AcDbEntity
  8
DEFPOINTS
370
    25
100
AcDbSpline
210
0.0
220
0.0
230
1.0
 70
    24
 71
     3
 72
     8
 73
     4
 74
     0
 42
0.0000000001
 43
0.0000000001
 40
0.0
 40
0.0
 40
0.0
 40
0.0
 40
1.0
 40
1.0
 40
1.0
 40
1.0
 10
196.1066
 20
238.7912
 30
0.0
 10
196.1066
 20
238.7912
 30
0.0
 10
197.3977
 20
238.7912
 30
0.0
 10
197.3977
 20
238.7912
 30
0.0
  0
SPLINE
  5
10D
330
1F
100
AcDbEntity
  8
DEFPOINTS
370
    25
100
AcDbSpline
210
0.0
220
0.0
230
1.0
 70
    24
 71
     3
 72
     8
 73
     4
 74
     0
 42
0.0000000001
 43
0.0000000001
 40
0.0
 40
0.0
 40
0.0
 40
0.0
 40
1.0
 40
1.0
 40
1.0
 40
1.0
 10
198.0539
 20
238.7912
 30
0.0
 10
198.0539
 20
238.7912
 30
0.0
 10
199.3662
 20
238.7912
 30
0.0
 10
199.3662
 20
238.7912
 30
0.0
  0
SPLINE
  5
10E
330
1F
100
AcDbEntity
  8
DEFPOINTS
370
    25
100
AcDbSpline
210
0.0
220
0.0
230
1.0
 70
    24
 71
     3
 72
     8
 73
     4
 74
     0
 42
0.0000000001
 43
0.0000000001
 40
0.0
 40
0.0
 40
0.0
 40
0.0
 40
1.0
 40
1.0
 40
1.0
 40
1.0
 10
200.0224
 20
238.7912
 30
0.0
 10
200.0224
 20
238.7912
 30
0.0
 10
201.3136
 20
238.7912
 30
0.0
 10
201.3136
 20
238.7912
 30
0.0
  0
SPLINE
  5
10F
330
1F
100
AcDbEntity
  8
DEFPOINTS
370
    25
100
AcDbSpline
210
0.0
220
0.0
230
1.0
 70
    24
 71
     3
 72
     8
 73
     4
 74
     0
 42
0.0000000001
 43
0.0000000001
 40
0.0
 40
0.0
 40
0.0
 40
0.0
 40
1.0
 40
1.0
 40
1.0
 40
1.0
 10
201.9697
 20
238.7912
 30
0.0
 10
201.9697
 20
238.7912
 30
0.0
 10
203.2821
 20
238.7912
 30
0.0
 10
203.2821
 20
238.7912
 30
0.0
  0
SPLINE
  5
110
330
1F
100
AcDbEntity
  8
DEFPOINTS
370
    25
100
AcDbSpline
210
0.0
220
0.0
230
1.0
 70
    24
 71
     3
 72
     8
 73
     4
 74
     0
 42
0.0000000001
 43
0.0000000001
 40
0.0
 40
0.0
 40
0.0
 40
0.0
 40
1.0
 40
1.0
 40
1.0
 40
1.0
 10
203.9382
 20
238.7912
 30
0.0
 10
203.9382
 20
238.7912
 30
0.0
 10
205.2294
 20
238.7912
 30
0.0
 10
205.2294
 20
238.7912
 30
0.0
  0
SPLINE
  5
111
330
1F
100
AcDbEntity
  8
DEFPOINTS
370
    25
100
AcDbSpline
210
0.0
220
0.0
230
1.0
 70
    24
 71
     3
 72
     8
 73
     4
 74
     0
 42
0.0000000001
 43
0.0000000001
 40
0.0
 40
0.0
 40
0.0
 40
0.0
 40
1.0
 40
1.0
 40
1.0
 40
1.0
 10
205.8856
 20
238.7912
 30
0.0
 10
205.8856
 20
238.7912
 30
0.0
 10
207.1979
 20
238.7912
 30
0.0
 10
207.1979
 20
238.7912
 30
0.0
  0
SPLINE
  5
112
330
1F
100
AcDbEntity
  8
DEFPOINTS
370
    25
100
AcDbSpline
210
0.0
220
0.0
230
1.0
 70
    24
 71
     3
 72
     8
 73
     4
 74
     0
 42
0.0000000001
 43
0.0000000001
 40
0.0
 40
0.0
 40
0.0
 40
0.0
 40
1.0
 40
1.0
 40
1.0
 40
1.0
 10
207.8541
 20
238.7912
 30
0.0
 10
207.8541
 20
238.7912
 30
0.0
 10
209.1452
 20
238.7912
 30
0.0
 10
209.1452
 20
238.7912
 30
0.0
  0
SPLINE
  5
113
330
1F
100
AcDbEntity
  8
DEFPOINTS
370
    25
100
AcDbSpline
210
0.0
220
0.0
230
1.0
 70
    24
 71
     3
 72
     8
 73
     4
 74
     0
 42
0.0000000001
 43
0.0000000001
 40
0.0
 40
0.0
 40
0.0
 40
0.0
 40
1.0
 40
1.0
 40
1.0
 40
1.0
 10
209.8014
 20
238.7912
 30
0.0
 10
209.8014
 20
238.7912
 30
0.0
 10
211.1137
 20
238.7912
 30
0.0
 10
211.1137
 20
238.7912
 30
0.0
  0
SPLINE
  5
114
330
1F
100
AcDbEntity
  8
DEFPOINTS
370
    25
100
AcDbSpline
210
0.0
220
0.0
230
1.0
 70
    24
 71
     3
 72
     8
 73
     4
 74
     0
 42
0.0000000001
 43
0.0000000001
 40
0.0
 40
0.0
 40
0.0
 40
0.0
 40
1.0
 40
1.0
 40
1.0
 40
1.0
 10
211.7699
 20
238.7912
 30
0.0
 10
211.7699
 20
238.7912
 30
0.0
 10
213.0611
 20
238.7912
 30
0.0
 10
213.0611
 20
238.7912
 30
0.0
  0
SPLINE
  5
115
330
1F
100
AcDbEntity
  8
DEFPOINTS
370
    25
100
AcDbSpline
210
0.0
220
0.0
230
1.0
 70
    24
 71
     3
 72
     8
 73
     4
 74
     0
 42
0.0000000001
 43
0.0000000001
 40
0.0
 40
0.0
 40
0.0
 40
0.0
 40
1.0
 40
1.0
 40
1.0
 40
1.0
 10
213.7172
 20
238.7912
 30
0.0
 10
213.7172
 20
238.7912
 30
0.0
 10
215.0296
 20
238.7912
 30
0.0
 10
215.0296
 20
238.7912
 30
0.0
  0
SPLINE
  5
116
330
1F
100
AcDbEntity
  8
DEFPOINTS
370
    25
100
AcDbSpline
210
0.0
220
0.0
230
1.0
 70
    24
 71
     3
 72
     8
 73
     4
 74
     0
 42
0.0000000001
 43
0.0000000001
 40
0.0
 40
0.0
 40
0.0
 40
0.0
 40
1.0
 40
1.0
 40
1.0
 40
1.0
 10
215.6857
 20
238.7912
 30
0.0
 10
215.6857
 20
238.7912
 30
0.0
 10
216.9769
 20
238.7912
 30
0.0
 10
216.9769
 20
238.7912
 30
0.0
  0
SPLINE
  5
117
330
1F
100
AcDbEntity
  8
DEFPOINTS
370
    25
100
AcDbSpline
210
0.0
220
0.0
230
1.0
 70
    24
 71
     3
 72
     8
 73
     4
 74
     0
 42
0.0000000001
 43
0.0000000001
 40
0.0
 40
0.0
 40
0.0
 40
0.0
 40
1.0
 40
1.0
 40
1.0
 40
1.0
 10
217.6331
 20
238.7912
 30
0.0
 10
217.6331
 20
238.7912
 30
0.0
 10
218.9454
 20
238.7912
 30
0.0
 10
218.9454
 20
238.7912
 30
0.0
  0
SPLINE
  5
118
330
1F
100
AcDbEntity
  8
DEFPOINTS
370
    25
100
AcDbSpline
210
0.0
220
0.0
230
1.0
 70
    24
 71
     3
 72
     8
 73
     4
 74
     0
 42
0.0000000001
 43
0.0000000001
 40
0.0
 40
0.0
 40
0.0
 40
0.0
 40
1.0
 40
1.0
 40
1.0
 40
1.0
 10
219.6016
 20
238.7912
 30
0.0
 10
219.6016
 20
238.7912
 30
0.0
 10
220.8927
 20
238.7912
 30
0.0
 10
220.8927
 20
238.7912
 30
0.0
  0
SPLINE
  5
119
330
1F
100
AcDbEntity
  8
DEFPOINTS
370
    25
100
AcDbSpline
210
0.0
220
0.0
230
1.0
 70
    24
 71
     3
 72
     8
 73
     4
 74
     0
 42
0.0000000001
 43
0.0000000001
 40
0.0
 40
0.0
 40
0.0
 40
0.0
 40
1.0
 40
1.0
 40
1.0
 40
1.0
 10
221.5489
 20
238.7912
 30
0.0
 10
221.5489
 20
238.7912
 30
0.0
 10
222.8612
 20
238.7912
 30
0.0
 10
222.8612
 20
238.7912
 30
0.0
  0
SPLINE
  5
11A
330
1F
100
AcDbEntity
  8
DEFPOINTS
370
    25
100
AcDbSpline
210
0.0
220
0.0
230
1.0
 70
    24
 71
     3
 72
     8
 73
     4
 74
     0
 42
0.0000000001
 43
0.0000000001
 40
0.0
 40
0.0
 40
0.0
 40
0.0
 40
1.0
 40
1.0
 40
1.0
 40
1.0
 10
223.5174
 20
238.7912
 30
0.0
 10
223.5174
 20
238.7912
 30
0.0
 10
224.8086
 20
238.7912
 30
0.0
 10
224.8086
 20
238.7912
 30
0.0
  0
SPLINE
  5
11B
330
1F
100
AcDbEntity
  8
DEFPOINTS
370
    25
100
AcDbSpline
210
0.0
220
0.0
230
1.0
 70
    24
 71
     3
 72
     8
 73
     4
 74
     0
 42
0.0000000001
 43
0.0000000001
 40
0.0
 40
0.0
 40
0.0
 40
0.0
 40
1.0
 40
1.0
 40
1.0
 40
1.0
 10
225.4647
 20
238.7912
 30
0.0
 10
225.4647
 20
238.7912
 30
0.0
 10
226.7771
 20
238.7912
 30
0.0
 10
226.7771
 20
238.7912
 30
0.0
  0
SPLINE
  5
11C
330
1F
100
AcDbEntity
  8
DEFPOINTS
370
    25
100
AcDbSpline
210
0.0
220
0.0
230
1.0
 70
    24
 71
     3
 72
     8
 73
     4
 74
     0
 42
0.0000000001
 43
0.0000000001
 40
0.0
 40
0.0
 40
0.0
 40
0.0
 40
1.0
 40
1.0
 40
1.0
 40
1.0
 10
227.4332
 20
238.7912
 30
0.0
 10
227.4332
 20
238.7912
 30
0.0
 10
228.7244
 20
238.7912
 30
0.0
 10
228.7244
 20
238.7912
 30
0.0
  0
SPLINE
  5
11D
330
1F
100
AcDbEntity
  8
DEFPOINTS
370
    25
100
AcDbSpline
210
0.0
220
0.0
230
1.0
 70
    24
 71
     3
 72
     8
 73
     4
 74
     0
 42
0.0000000001
 43
0.0000000001
 40
0.0
 40
0.0
 40
0.0
 40
0.0
 40
1.0
 40
1.0
 40
1.0
 40
1.0
 10
229.3806
 20
238.7912
 30
0.0
 10
229.3806
 20
238.7912
 30
0.0
 10
230.6929
 20
238.7912
 30
0.0
 10
230.6929
 20
238.7912
 30
0.0
  0
SPLINE
  5
11E
330
1F
100
AcDbEntity
  8
DEFPOINTS
370
    25
100
AcDbSpline
210
0.0
220
0.0
230
1.0
 70
    24
 71
     3
 72
     8
 73
     4
 74
     0
 42
0.0000000001
 43
0.0000000001
 40
0.0
 40
0.0
 40
0.0
 40
0.0
 40
1.0
 40
1.0
 40
1.0
 40
1.0
 10
231.3491
 20
238.7912
 30
0.0
 10
231.3491
 20
238.7912
 30
0.0
 10
232.6402
 20
238.7912
 30
0.0
 10
232.6402
 20
238.7912
 30
0.0
  0
SPLINE
  5
11F
330
1F
100
AcDbEntity
  8
DEFPOINTS
370
    25
100
AcDbSpline
210
0.0
220
0.0
230
1.0
 70
    24
 71
     3
 72
     8
 73
     4
 74
     0
 42
0.0000000001
 43
0.0000000001
 40
0.0
 40
0.0
 40
0.0
 40
0.0
 40
1.0
 40
1.0
 40
1.0
 40
1.0
 10
233.2964
 20
238.7912
 30
0.0
 10
233.2964
 20
238.7912
 30
0.0
 10
234.6087
 20
238.7912
 30
0.0
 10
234.6087
 20
238.7912
 30
0.0
  0
SPLINE
  5
120
330
1F
100
AcDbEntity
  8
DEFPOINTS
370
    25
100
AcDbSpline
210
0.0
220
0.0
230
1.0
 70
    24
 71
     3
 72
     8
 73
     4
 74
     0
 42
0.0000000001
 43
0.0000000001
 40
0.0
 40
0.0
 40
0.0
 40
0.0
 40
1.0
 40
1.0
 40
1.0
 40
1.0
 10
235.2649
 20
238.7912
 30
0.0
 10
235.2649
 20
238.7912
 30
0.0
 10
236.5561
 20
238.7912
 30
0.0
 10
236.5561
 20
238.7912
 30
0.0
  0
SPLINE
  5
121
330
1F
100
AcDbEntity
  8
DEFPOINTS
370
    25
100
AcDbSpline
210
0.0
220
0.0
230
1.0
 70
    24
 71
     3
 72
     8
 73
     4
 74
     0
 42
0.0000000001
 43
0.0000000001
 40
0.0
 40
0.0
 40
0.0
 40
0.0
 40
1.0
 40
1.0
 40
1.0
 40
1.0
 10
237.2122
 20
238.7912
 30
0.0
 10
237.2122
 20
238.7912
 30
0.0
 10
238.5246
 20
238.7912
 30
0.0
 10
238.5246
 20
238.7912
 30
0.0
  0
SPLINE
  5
122
330
1F
100
AcDbEntity
  8
DEFPOINTS
370
    25
100
AcDbSpline
210
0.0
220
0.0
230
1.0
 70
    24
 71
     3
 72
     8
 73
     4
 74
     0
 42
0.0000000001
 43
0.0000000001
 40
0.0
 40
0.0
 40
0.0
 40
0.0
 40
1.0
 40
1.0
 40
1.0
 40
1.0
 10
239.1807
 20
238.7912
 30
0.0
 10
239.1807
 20
238.7912
 30
0.0
 10
240.4719
 20
238.7912
 30
0.0
 10
240.4719
 20
238.7912
 30
0.0
  0
SPLINE
  5
123
330
1F
100
AcDbEntity
  8
DEFPOINTS
370
    25
100
AcDbSpline
210
0.0
220
0.0
230
1.0
 70
    24
 71
     3
 72
     8
 73
     4
 74
     0
 42
0.0000000001
 43
0.0000000001
 40
0.0
 40
0.0
 40
0.0
 40
0.0
 40
1.0
 40
1.0
 40
1.0
 40
1.0
 10
241.1281
 20
238.7912
 30
0.0
 10
241.1281
 20
238.7912
 30
0.0
 10
242.4404
 20
238.7912
 30
0.0
 10
242.4404
 20
238.7912
 30
0.0
  0
SPLINE
  5
124
330
1F
100
AcDbEntity
  8
DEFPOINTS
370
    25
100
AcDbSpline
210
0.0
220
0.0
230
1.0
 70
    24
 71
     3
 72
     8
 73
     4
 74
     0
 42
0.0000000001
 43
0.0000000001
 40
0.0
 40
0.0
 40
0.0
 40
0.0
 40
1.0
 40
1.0
 40
1.0
 40
1.0
 10
243.0966
 20
238.7912
 30
0.0
 10
243.0966
 20
238.7912
 30
0.0
 10
244.4089
 20
238.7912
 30
0.0
 10
244.4089
 20
238.7912
 30
0.0
  0
SPLINE
  5
125
330
1F
100
AcDbEntity
  8
DEFPOINTS
370
    25
100
AcDbSpline
210
0.0
220
0.0
230
1.0
 70
    24
 71
     3
 72
     8
 73
     4
 74
     0
 42
0.0000000001
 43
0.0000000001
 40
0.0
 40
0.0
 40
0.0
 40
0.0
 40
1.0
 40
1.0
 40
1.0
 40
1.0
 10
245.0439
 20
238.7912
 30
0.0
 10
245.0439
 20
238.7912
 30
0.0
 10
246.3562
 20
238.7912
 30
0.0
 10
246.3562
 20
238.7912
 30
0.0
  0
SPLINE
  5
126
330
1F
100
AcDbEntity
  8
DEFPOINTS
370
    25
100
AcDbSpline
210
0.0
220
0.0
230
1.0
 70
    24
 71
     3
 72
     8
 73
     4
 74
     0
 42
0.0000000001
 43
0.0000000001
 40
0.0
 40
0.0
 40
0.0
 40
0.0
 40
1.0
 40
1.0
 40
1.0
 40
1.0
 10
247.0124
 20
238.7912
 30
0.0
 10
247.0124
 20
238.7912
 30
0.0
 10
248.3247
 20
238.7912
 30
0.0
 10
248.3247
 20
238.7912
 30
0.0
  0
SPLINE
  5
127
330
1F
100
AcDbEntity
  8
DEFPOINTS
370
    25
100
AcDbSpline
210
0.0
220
0.0
230
1.0
 70
    24
 71
     3
 72
     8
 73
     4
 74
     0
 42
0.0000000001
 43
0.0000000001
 40
0.0
 40
0.0
 40
0.0
 40
0.0
 40
1.0
 40
1.0
 40
1.0
 40
1.0
 10
248.9597
 20
238.7912
 30
0.0
 10
248.9597
 20
238.7912
 30
0.0
 10
250.2721
 20
238.7912
 30
0.0
 10
250.2721
 20
238.7912
 30
0.0
  0
SPLINE
  5
128
330
1F
100
AcDbEntity
  8
DEFPOINTS
370
    25
100
AcDbSpline
210
0.0
220
0.0
230
1.0
 70
    24
 71
     3
 72
     8
 73
     4
 74
     0
 42
0.0000000001
 43
0.0000000001
 40
0.0
 40
0.0
 40
0.0
 40
0.0
 40
1.0
 40
1.0
 40
1.0
 40
1.0
 10
250.9282
 20
238.7912
 30
0.0
 10
250.9282
 20
238.7912
 30
0.0
 10
252.2406
 20
238.7912
 30
0.0
 10
252.2406
 20
238.7912
 30
0.0
  0
SPLINE
  5
129
330
1F
100
AcDbEntity
  8
DEFPOINTS
370
    25
100
AcDbSpline
210
0.0
220
0.0
230
1.0
 70
    24
 71
     3
 72
     8
 73
     4
 74
     0
 42
0.0000000001
 43
0.0000000001
 40
0.0
 40
0.0
 40
0.0
 40
0.0
 40
1.0
 40
1.0
 40
1.0
 40
1.0
 10
252.8756
 20
238.7912
 30
0.0
 10
252.8756
 20
238.7912
 30
0.0
 10
254.1879
 20
238.7912
 30
0.0
 10
254.1879
 20
238.7912
 30
0.0
  0
SPLINE
  5
12A
330
1F
100
AcDbEntity
  8
DEFPOINTS
370
    25
100
AcDbSpline
210
0.0
220
0.0
230
1.0
 70
    24
 71
     3
 72
     8
 73
     4
 74
     0
 42
0.0000000001
 43
0.0000000001
 40
0.0
 40
0.0
 40
0.0
 40
0.0
 40
1.0
 40
1.0
 40
1.0
 40
1.0
 10
254.8441
 20
238.7912
 30
0.0
 10
254.8441
 20
238.7912
 30
0.0
 10
256.1564
 20
238.7912
 30
0.0
 10
256.1564
 20
238.7912
 30
0.0
  0
SPLINE
  5
12B
330
1F
100
AcDbEntity
  8
DEFPOINTS
370
    25
100
AcDbSpline
210
0.0
220
0.0
230
1.0
 70
    24
 71
     3
 72
     8
 73
     4
 74
     0
 42
0.0000000001
 43
0.0000000001
 40
0.0
 40
0.0
 40
0.0
 40
0.0
 40
1.0
 40
1.0
 40
1.0
 40
1.0
 10
256.7914
 20
238.7912
 30
0.0
 10
256.7914
 20
238.7912
 30
0.0
 10
258.1037
 20
238.7912
 30
0.0
 10
258.1037
 20
238.7912
 30
0.0
  0
SPLINE
  5
12C
330
1F
100
AcDbEntity
  8
DEFPOINTS
370
    25
100
AcDbSpline
210
0.0
220
0.0
230
1.0
 70
    24
 71
     3
 72
     8
 73
     4
 74
     0
 42
0.0000000001
 43
0.0000000001
 40
0.0
 40
0.0
 40
0.0
 40
0.0
 40
1.0
 40
1.0
 40
1.0
 40
1.0
 10
258.7599
 20
238.7912
 30
0.0
 10
258.7599
 20
238.7912
 30
0.0
 10
260.0722
 20
238.7912
 30
0.0
 10
260.0722
 20
238.7912
 30
0.0
  0
SPLINE
  5
12D
330
1F
100
AcDbEntity
  8
DEFPOINTS
370
    25
100
AcDbSpline
210
0.0
220
0.0
230
1.0
 70
    24
 71
     3
 72
     8
 73
     4
 74
     0
 42
0.0000000001
 43
0.0000000001
 40
0.0
 40
0.0
 40
0.0
 40
0.0
 40
1.0
 40
1.0
 40
1.0
 40
1.0
 10
260.7072
 20
238.7912
 30
0.0
 10
260.7072
 20
238.7912
 30
0.0
 10
262.0196
 20
238.7912
 30
0.0
 10
262.0196
 20
238.7912
 30
0.0
  0
SPLINE
  5
12E
330
1F
100
AcDbEntity
  8
DEFPOINTS
370
    25
100
AcDbSpline
210
0.0
220
0.0
230
1.0
 70
    24
 71
     3
 72
     8
 73
     4
 74
     0
 42
0.0000000001
 43
0.0000000001
 40
0.0
 40
0.0
 40
0.0
 40
0.0
 40
1.0
 40
1.0
 40
1.0
 40
1.0
 10
262.6757
 20
238.7912
 30
0.0
 10
262.6757
 20
238.7912
 30
0.0
 10
263.9881
 20
238.7912
 30
0.0
 10
263.9881
 20
238.7912
 30
0.0
  0
SPLINE
  5
12F
330
1F
100
AcDbEntity
  8
DEFPOINTS
370
    25
100
AcDbSpline
210
0.0
220
0.0
230
1.0
 70
    24
 71
     3
 72
     8
 73
     4
 74
     0
 42
0.0000000001
 43
0.0000000001
 40
0.0
 40
0.0
 40
0.0
 40
0.0
 40
1.0
 40
1.0
 40
1.0
 40
1.0
 10
264.6231
 20
238.7912
 30
0.0
 10
264.6231
 20
238.7912
 30
0.0
 10
265.9354
 20
238.7912
 30
0.0
 10
265.9354
 20
238.7912
 30
0.0
  0
SPLINE
  5
130
330
1F
100
AcDbEntity
  8
DEFPOINTS
370
    25
100
AcDbSpline
210
0.0
220
0.0
230
1.0
 70
    24
 71
     3
 72
     8
 73
     4
 74
     0
 42
0.0000000001
 43
0.0000000001
 40
0.0
 40
0.0
 40
0.0
 40
0.0
 40
1.0
 40
1.0
 40
1.0
 40
1.0
 10
266.5916
 20
238.7912
 30
0.0
 10
266.5916
 20
238.7912
 30
0.0
 10
267.9039
 20
238.7912
 30
0.0
 10
267.9039
 20
238.7912
 30
0.0
  0
SPLINE
  5
131
330
1F
100
AcDbEntity
  8
DEFPOINTS
370
    25
100
AcDbSpline
210
0.0
220
0.0
230
1.0
 70
    24
 71
     3
 72
     8
 73
     4
 74
     0
 42
0.0000000001
 43
0.0000000001
 40
0.0
 40
0.0
 40
0.0
 40
0.0
 40
1.0
 40
1.0
 40
1.0
 40
1.0
 10
268.5389
 20
238.7912
 30
0.0
 10
268.5389
 20
238.7912
 30
0.0
 10
269.8512
 20
238.7912
 30
0.0
 10
269.8512
 20
238.7912
 30
0.0
  0
SPLINE
  5
132
330
1F
100
AcDbEntity
  8
DEFPOINTS
370
    25
100
AcDbSpline
210
0.0
220
0.0
230
1.0
 70
    24
 71
     3
 72
     8
 73
     4
 74
     0
 42
0.0000000001
 43
0.0000000001
 40
0.0
 40
0.0
 40
0.0
 40
0.0
 40
1.0
 40
1.0
 40
1.0
 40
1.0
 10
270.5074
 20
238.7912
 30
0.0
 10
270.5074
 20
238.7912
 30
0.0
 10
271.8197
 20
238.7912
 30
0.0
 10
271.8197
 20
238.7912
 30
0.0
  0
SPLINE
  5
133
330
1F
100
AcDbEntity
  8
DEFPOINTS
370
    25
100
AcDbSpline
210
0.0
220
0.0
230
1.0
 70
    24
 71
     3
 72
     8
 73
     4
 74
     0
 42
0.0000000001
 43
0.0000000001
 40
0.0
 40
0.0
 40
0.0
 40
0.0
 40
1.0
 40
1.0
 40
1.0
 40
1.0
 10
272.4547
 20
238.7912
 30
0.0
 10
272.4547
 20
238.7912
 30
0.0
 10
273.7671
 20
238.7912
 30
0.0
 10
273.7671
 20
238.7912
 30
0.0
  0
SPLINE
  5
134
330
1F
100
AcDbEntity
  8
DEFPOINTS
370
    25
100
AcDbSpline
210
0.0
220
0.0
230
1.0
 70
    24
 71
     3
 72
     8
 73
     4
 74
     0
 42
0.0000000001
 43
0.0000000001
 40
0.0
 40
0.0
 40
0.0
 40
0.0
 40
1.0
 40
1.0
 40
1.0
 40
1.0
 10
274.4232
 20
238.7912
 30
0.0
 10
274.4232
 20
238.7912
 30
0.0
 10
275.7356
 20
238.7912
 30
0.0
 10
275.7356
 20
238.7912
 30
0.0
  0
SPLINE
  5
135
330
1F
100
AcDbEntity
  8
DEFPOINTS
370
    25
100
AcDbSpline
210
0.0
220
0.0
230
1.0
 70
    24
 71
     3
 72
     8
 73
     4
 74
     0
 42
0.0000000001
 43
0.0000000001
 40
0.0
 40
0.0
 40
0.0
 40
0.0
 40
1.0
 40
1.0
 40
1.0
 40
1.0
 10
276.3706
 20
238.7912
 30
0.0
 10
276.3706
 20
238.7912
 30
0.0
 10
277.6829
 20
238.7912
 30
0.0
 10
277.6829
 20
238.7912
 30
0.0
  0
SPLINE
  5
136
330
1F
100
AcDbEntity
  8
DEFPOINTS
370
    25
100
AcDbSpline
210
0.0
220
0.0
230
1.0
 70
    24
 71
     3
 72
     8
 73
     4
 74
     0
 42
0.0000000001
 43
0.0000000001
 40
0.0
 40
0.0
 40
0.0
 40
0.0
 40
1.0
 40
1.0
 40
1.0
 40
1.0
 10
278.3391
 20
238.7912
 30
0.0
 10
278.3391
 20
238.7912
 30
0.0
 10
279.6514
 20
238.7912
 30
0.0
 10
279.6514
 20
238.7912
 30
0.0
  0
SPLINE
  5
137
330
1F
100
AcDbEntity
  8
DEFPOINTS
370
    25
100
AcDbSpline
210
0.0
220
0.0
230
1.0
 70
    24
 71
     3
 72
     8
 73
     4
 74
     0
 42
0.0000000001
 43
0.0000000001
 40
0.0
 40
0.0
 40
0.0
 40
0.0
 40
1.0
 40
1.0
 40
1.0
 40
1.0
 10
280.2864
 20
238.7912
 30
0.0
 10
280.2864
 20
238.7912
 30
0.0
 10
281.5987
 20
238.7912
 30
0.0
 10
281.5987
 20
238.7912
 30
0.0
  0
SPLINE
  5
138
330
1F
100
AcDbEntity
  8
DEFPOINTS
370
    25
100
AcDbSpline
210
0.0
220
0.0
230
1.0
 70
    24
 71
     3
 72
     8
 73
     4
 74
     0
 42
0.0000000001
 43
0.0000000001
 40
0.0
 40
0.0
 40
0.0
 40
0.0
 40
1.0
 40
1.0
 40
1.0
 40
1.0
 10
282.2549
 20
238.7912
 30
0.0
 10
282.2549
 20
238.7912
 30
0.0
 10
283.5672
 20
238.7912
 30
0.0
 10
283.5672
 20
238.7912
 30
0.0
  0
SPLINE
  5
139
330
1F
100
AcDbEntity
  8
DEFPOINTS
370
    25
100
AcDbSpline
210
0.0
220
0.0
230
1.0
 70
    24
 71
     3
 72
     8
 73
     4
 74
     0
 42
0.0000000001
 43
0.0000000001
 40
0.0
 40
0.0
 40
0.0
 40
0.0
 40
1.0
 40
1.0
 40
1.0
 40
1.0
 10
284.2234
 20
238.7912
 30
0.0
 10
284.2234
 20
238.7912
 30
0.0
 10
285.5146
 20
238.7912
 30
0.0
 10
285.5146
 20
238.7912
 30
0.0
  0
SPLINE
  5
13A
330
1F
100
AcDbEntity
  8
DEFPOINTS
370
    25
100
AcDbSpline
210
0.0
220
0.0
230
1.0
 70
    24
 71
     3
 72
     8
 73
     4
 74
     0
 42
0.0000000001
 43
0.0000000001
 40
0.0
 40
0.0
 40
0.0
 40
0.0
 40
1.0
 40
1.0
 40
1.0
 40
1.0
 10
286.1707
 20
238.7912
 30
0.0
 10
286.1707
 20
238.7912
 30
0.0
 10
287.4831
 20
238.7912
 30
0.0
 10
287.4831
 20
238.7912
 30
0.0
  0
SPLINE
  5
13B
330
1F
100
AcDbEntity
  8
DEFPOINTS
370
    25
100
AcDbSpline
210
0.0
220
0.0
230
1.0
 70
    24
 71
     3
 72
     8
 73
     4
 74
     0
 42
0.0000000001
 43
0.0000000001
 40
0.0
 40
0.0
 40
0.0
 40
0.0
 40
1.0
 40
1.0
 40
1.0
 40
1.0
 10
288.1392
 20
238.7912
 30
0.0
 10
288.1392
 20
238.7912
 30
0.0
 10
289.4304
 20
238.7912
 30
0.0
 10
289.4304
 20
238.7912
 30
0.0
  0
SPLINE
  5
13C
330
1F
100
AcDbEntity
  8
DEFPOINTS
370
    25
100
AcDbSpline
210
0.0
220
0.0
230
1.0
 70
    24
 71
     3
 72
     8
 73
     4
 74
     0
 42
0.0000000001
 43
0.0000000001
 40
0.0
 40
0.0
 40
0.0
 40
0.0
 40
1.0
 40
1.0
 40
1.0
 40
1.0
 10
290.0866
 20
238.7912
 30
0.0
 10
290.0866
 20
238.7912
 30
0.0
 10
291.3989
 20
238.7912
 30
0.0
 10
291.3989
 20
238.7912
 30
0.0
  0
SPLINE
  5
13D
330
1F
100
AcDbEntity
  8
DEFPOINTS
370
    25
100
AcDbSpline
210
0.0
220
0.0
230
1.0
 70
    24
 71
     3
 72
     8
 73
     4
 74
     0
 42
0.0000000001
 43
0.0000000001
 40
0.0
 40
0.0
 40
0.0
 40
0.0
 40
1.0
 40
1.0
 40
1.0
 40
1.0
 10
292.0551
 20
238.7912
 30
0.0
 10
292.0551
 20
238.7912
 30
0.0
 10
293.3462
 20
238.7912
 30
0.0
 10
293.3462
 20
238.7912
 30
0.0
  0
SPLINE
  5
13E
330
1F
100
AcDbEntity
  8
DEFPOINTS
370
    25
100
AcDbSpline
210
0.0
220
0.0
230
1.0
 70
    24
 71
     3
 72
     8
 73
     4
 74
     0
 42
0.0000000001
 43
0.0000000001
 40
0.0
 40
0.0
 40
0.0
 40
0.0
 40
1.0
 40
1.0
 40
1.0
 40
1.0
 10
294.0024
 20
238.7912
 30
0.0
 10
294.0024
 20
238.7912
 30
0.0
 10
295.3147
 20
238.7912
 30
0.0
 10
295.3147
 20
238.7912
 30
0.0
  0
SPLINE
  5
13F
330
1F
100
AcDbEntity
  8
DEFPOINTS
370
    25
100
AcDbSpline
210
0.0
220
0.0
230
1.0
 70
    24
 71
     3
 72
     8
 73
     4
 74
     0
 42
0.0000000001
 43
0.0000000001
 40
0.0
 40
0.0
 40
0.0
 40
0.0
 40
1.0
 40
1.0
 40
1.0
 40
1.0
 10
295.9709
 20
238.7912
 30
0.0
 10
295.9709
 20
238.7912
 30
0.0
 10
297.2621
 20
238.7912
 30
0.0
 10
297.2621
 20
238.7912
 30
0.0
  0
SPLINE
  5
140
330
1F
100
AcDbEntity
  8
DEFPOINTS
370
    25
100
AcDbSpline
210
0.0
220
0.0
230
1.0
 70
    24
 71
     3
 72
     8
 73
     4
 74
     0
 42
0.0000000001
 43
0.0000000001
 40
0.0
 40
0.0
 40
0.0
 40
0.0
 40
1.0
 40
1.0
 40
1.0
 40
1.0
 10
297.9182
 20
238.7912
 30
0.0
 10
297.9182
 20
238.7912
 30
0.0
 10
299.2306
 20
238.7912
 30
0.0
 10
299.2306
 20
238.7912
 30
0.0
  0
SPLINE
  5
141
330
1F
100
AcDbEntity
  8
DEFPOINTS
370
    25
100
AcDbSpline
210
0.0
220
0.0
230
1.0
 70
    24
 71
     3
 72
     8
 73
     4
 74
     0
 42
0.0000000001
 43
0.0000000001
 40
0.0
 40
0.0
 40
0.0
 40
0.0
 40
1.0
 40
1.0
 40
1.0
 40
1.0
 10
299.8867
 20
238.7912
 30
0.0
 10
299.8867
 20
238.7912
 30
0.0
 10
301.1779
 20
238.7912
 30
0.0
 10
301.1779
 20
238.7912
 30
0.0
  0
SPLINE
  5
142
330
1F
100
AcDbEntity
  8
DEFPOINTS
370
    25
100
AcDbSpline
210
0.0
220
0.0
230
1.0
 70
    24
 71
     3
 72
     8
 73
     4
 74
     0
 42
0.0000000001
 43
0.0000000001
 40
0.0
 40
0.0
 40
0.0
 40
0.0
 40
1.0
 40
1.0
 40
1.0
 40
1.0
 10
301.8341
 20
238.7912
 30
0.0
 10
301.8341
 20
238.7912
 30
0.0
 10
303.1464
 20
238.7912
 30
0.0
 10
303.1464
 20
238.7912
 30
0.0
  0
SPLINE
  5
143
330
1F
100
AcDbEntity
  8
DEFPOINTS
370
    25
100
AcDbSpline
210
0.0
220
0.0
230
1.0
 70
    24
 71
     3
 72
     8
 73
     4
 74
     0
 42
0.0000000001
 43
0.0000000001
 40
0.0
 40
0.0
 40
0.0
 40
0.0
 40
1.0
 40
1.0
 40
1.0
 40
1.0
 10
303.8026
 20
238.7912
 30
0.0
 10
303.8026
 20
238.7912
 30
0.0
 10
305.1784
 20
238.7912
 30
0.0
 10
305.1784
 20
238.7912
 30
0.0
  0
SPLINE
  5
144
330
1F
100
AcDbEntity
  8
DEFPOINTS
370
    25
100
AcDbSpline
210
0.0
220
0.0
230
1.0
 70
    24
 71
     3
 72
     8
 73
     4
 74
     0
 42
0.0000000001
 43
0.0000000001
 40
0.0
 40
0.0
 40
0.0
 40
0.0
 40
1.0
 40
1.0
 40
1.0
 40
1.0
 10
179.7024
 20
156.4528
 30
0.0
 10
179.7024
 20
156.4528
 30
0.0
 10
179.7024
 20
157.8075
 30
0.0
 10
179.7024
 20
157.8075
 30
0.0
  0
SPLINE
  5
145
330
1F
100
AcDbEntity
  8
DEFPOINTS
370
    25
100
AcDbSpline
210
0.0
220
0.0
230
1.0
 70
    24
 71
     3
 72
     8
 73
     4
 74
     0
 42
0.0000000001
 43
0.0000000001
 40
0.0
 40
0.0
 40
0.0
 40
0.0
 40
1.0
 40
1.0
 40
1.0
 40
1.0
 10
179.7024
 20
158.4637
 30
0.0
 10
179.7024
 20
158.4637
 30
0.0
 10
179.7024
 20
159.776
 30
0.0
 10
179.7024
 20
159.776
 30
0.0
  0
SPLINE
  5
146
330
1F
100
AcDbEntity
  8
DEFPOINTS
370
    25
100
AcDbSpline
210
0.0
220
0.0
230
1.0
 70
    24
 71
     3
 72
     8
 73
     4
 74
     0
 42
0.0000000001
 43
0.0000000001
 40
0.0
 40
0.0
 40
0.0
 40
0.0
 40
1.0
 40
1.0
 40
1.0
 40
1.0
 10
179.7024
 20
160.4322
 30
0.0
 10
179.7024
 20
160.4322
 30
0.0
 10
179.7024
 20
161.7233
 30
0.0
 10
179.7024
 20
161.7233
 30
0.0
  0
SPLINE
  5
147
330
1F
100
AcDbEntity
  8
DEFPOINTS
370
    25
100
AcDbSpline
210
0.0
220
0.0
230
1.0
 70
    24
 71
     3
 72
     8
 73
     4
 74
     0
 42
0.0000000001
 43
0.0000000001
 40
0.0
 40
0.0
 40
0.0
 40
0.0
 40
1.0
 40
1.0
 40
1.0
 40
1.0
 10
179.7024
 20
162.3795
 30
0.0
 10
179.7024
 20
162.3795
 30
0.0
 10
179.7024
 20
163.6918
 30
0.0
 10
179.7024
 20
163.6918
 30
0.0
  0
SPLINE
  5
148
330
1F
100
AcDbEntity
  8
DEFPOINTS
370
    25
100
AcDbSpline
210
0.0
220
0.0
230
1.0
 70
    24
 71
     3
 72
     8
 73
     4
 74
     0
 42
0.0000000001
 43
0.0000000001
 40
0.0
 40
0.0
 40
0.0
 40
0.0
 40
1.0
 40
1.0
 40
1.0
 40
1.0
 10
179.7024
 20
164.348
 30
0.0
 10
179.7024
 20
164.348
 30
0.0
 10
179.7024
 20
165.6392
 30
0.0
 10
179.7024
 20
165.6392
 30
0.0
  0
SPLINE
  5
149
330
1F
100
AcDbEntity
  8
DEFPOINTS
370
    25
100
AcDbSpline
210
0.0
220
0.0
230
1.0
 70
    24
 71
     3
 72
     8
 73
     4
 74
     0
 42
0.0000000001
 43
0.0000000001
 40
0.0
 40
0.0
 40
0.0
 40
0.0
 40
1.0
 40
1.0
 40
1.0
 40
1.0
 10
179.7024
 20
166.2953
 30
0.0
 10
179.7024
 20
166.2953
 30
0.0
 10
179.7024
 20
167.6077
 30
0.0
 10
179.7024
 20
167.6077
 30
0.0
  0
SPLINE
  5
14A
330
1F
100
AcDbEntity
  8
DEFPOINTS
370
    25
100
AcDbSpline
210
0.0
220
0.0
230
1.0
 70
    24
 71
     3
 72
     8
 73
     4
 74
     0
 42
0.0000000001
 43
0.0000000001
 40
0.0
 40
0.0
 40
0.0
 40
0.0
 40
1.0
 40
1.0
 40
1.0
 40
1.0
 10
179.7024
 20
168.2638
 30
0.0
 10
179.7024
 20
168.2638
 30
0.0
 10
179.7024
 20
169.555
 30
0.0
 10
179.7024
 20
169.555
 30
0.0
  0
SPLINE
  5
14B
330
1F
100
AcDbEntity
  8
DEFPOINTS
370
    25
100
AcDbSpline
210
0.0
220
0.0
230
1.0
 70
    24
 71
     3
 72
     8
 73
     4
 74
     0
 42
0.0000000001
 43
0.0000000001
 40
0.0
 40
0.0
 40
0.0
 40
0.0
 40
1.0
 40
1.0
 40
1.0
 40
1.0
 10
179.7024
 20
170.2112
 30
0.0
 10
179.7024
 20
170.2112
 30
0.0
 10
179.7024
 20
171.5235
 30
0.0
 10
179.7024
 20
171.5235
 30
0.0
  0
SPLINE
  5
14C
330
1F
100
AcDbEntity
  8
DEFPOINTS
370
    25
100
AcDbSpline
210
0.0
220
0.0
230
1.0
 70
    24
 71
     3
 72
     8
 73
     4
 74
     0
 42
0.0000000001
 43
0.0000000001
 40
0.0
 40
0.0
 40
0.0
 40
0.0
 40
1.0
 40
1.0
 40
1.0
 40
1.0
 10
179.7024
 20
172.1797
 30
0.0
 10
179.7024
 20
172.1797
 30
0.0
 10
179.7024
 20
173.4708
 30
0.0
 10
179.7024
 20
173.4708
 30
0.0
  0
SPLINE
  5
14D
330
1F
100
AcDbEntity
  8
DEFPOINTS
370
    25
100
AcDbSpline
210
0.0
220
0.0
230
1.0
 70
    24
 71
     3
 72
     8
 73
     4
 74
     0
 42
0.0000000001
 43
0.0000000001
 40
0.0
 40
0.0
 40
0.0
 40
0.0
 40
1.0
 40
1.0
 40
1.0
 40
1.0
 10
179.7024
 20
174.127
 30
0.0
 10
179.7024
 20
174.127
 30
0.0
 10
179.7024
 20
175.4393
 30
0.0
 10
179.7024
 20
175.4393
 30
0.0
  0
SPLINE
  5
14E
330
1F
100
AcDbEntity
  8
DEFPOINTS
370
    25
100
AcDbSpline
210
0.0
220
0.0
230
1.0
 70
    24
 71
     3
 72
     8
 73
     4
 74
     0
 42
0.0000000001
 43
0.0000000001
 40
0.0
 40
0.0
 40
0.0
 40
0.0
 40
1.0
 40
1.0
 40
1.0
 40
1.0
 10
179.7024
 20
176.0955
 30
0.0
 10
179.7024
 20
176.0955
 30
0.0
 10
179.7024
 20
177.3867
 30
0.0
 10
179.7024
 20
177.3867
 30
0.0
  0
SPLINE
  5
14F
330
1F
100
AcDbEntity
  8
DEFPOINTS
370
    25
100
AcDbSpline
210
0.0
220
0.0
230
1.0
 70
    24
 71
     3
 72
     8
 73
     4
 74
     0
 42
0.0000000001
 43
0.0000000001
 40
0.0
 40
0.0
 40
0.0
 40
0.0
 40
1.0
 40
1.0
 40
1.0
 40
1.0
 10
179.7024
 20
178.0428
 30
0.0
 10
179.7024
 20
178.0428
 30
0.0
 10
179.7024
 20
179.3552
 30
0.0
 10
179.7024
 20
179.3552
 30
0.0
  0
SPLINE
  5
150
330
1F
100
AcDbEntity
  8
DEFPOINTS
370
    25
100
AcDbSpline
210
0.0
220
0.0
230
1.0
 70
    24
 71
     3
 72
     8
 73
     4
 74
     0
 42
0.0000000001
 43
0.0000000001
 40
0.0
 40
0.0
 40
0.0
 40
0.0
 40
1.0
 40
1.0
 40
1.0
 40
1.0
 10
179.7024
 20
180.0113
 30
0.0
 10
179.7024
 20
180.0113
 30
0.0
 10
179.7024
 20
181.3025
 30
0.0
 10
179.7024
 20
181.3025
 30
0.0
  0
SPLINE
  5
151
330
1F
100
AcDbEntity
  8
DEFPOINTS
370
    25
100
AcDbSpline
210
0.0
220
0.0
230
1.0
 70
    24
 71
     3
 72
     8
 73
     4
 74
     0
 42
0.0000000001
 43
0.0000000001
 40
0.0
 40
0.0
 40
0.0
 40
0.0
 40
1.0
 40
1.0
 40
1.0
 40
1.0
 10
179.7024
 20
181.9587
 30
0.0
 10
179.7024
 20
181.9587
 30
0.0
 10
179.7024
 20
183.271
 30
0.0
 10
179.7024
 20
183.271
 30
0.0
  0
SPLINE
  5
152
330
1F
100
AcDbEntity
  8
DEFPOINTS
370
    25
100
AcDbSpline
210
0.0
220
0.0
230
1.0
 70
    24
 71
     3
 72
     8
 73
     4
 74
     0
 42
0.0000000001
 43
0.0000000001
 40
0.0
 40
0.0
 40
0.0
 40
0.0
 40
1.0
 40
1.0
 40
1.0
 40
1.0
 10
179.7024
 20
183.9272
 30
0.0
 10
179.7024
 20
183.9272
 30
0.0
 10
179.7024
 20
185.2183
 30
0.0
 10
179.7024
 20
185.2183
 30
0.0
  0
SPLINE
  5
153
330
1F
100
AcDbEntity
  8
DEFPOINTS
370
    25
100
AcDbSpline
210
0.0
220
0.0
230
1.0
 70
    24
 71
     3
 72
     8
 73
     4
 74
     0
 42
0.0000000001
 43
0.0000000001
 40
0.0
 40
0.0
 40
0.0
 40
0.0
 40
1.0
 40
1.0
 40
1.0
 40
1.0
 10
179.7024
 20
185.8745
 30
0.0
 10
179.7024
 20
185.8745
 30
0.0
 10
179.7024
 20
187.1868
 30
0.0
 10
179.7024
 20
187.1868
 30
0.0
  0
SPLINE
  5
154
330
1F
100
AcDbEntity
  8
DEFPOINTS
370
    25
100
AcDbSpline
210
0.0
220
0.0
230
1.0
 70
    24
 71
     3
 72
     8
 73
     4
 74
     0
 42
0.0000000001
 43
0.0000000001
 40
0.0
 40
0.0
 40
0.0
 40
0.0
 40
1.0
 40
1.0
 40
1.0
 40
1.0
 10
179.7024
 20
187.843
 30
0.0
 10
179.7024
 20
187.843
 30
0.0
 10
179.7024
 20
189.1342
 30
0.0
 10
179.7024
 20
189.1342
 30
0.0
  0
SPLINE
  5
155
330
1F
100
AcDbEntity
  8
DEFPOINTS
370
    25
100
AcDbSpline
210
0.0
220
0.0
230
1.0
 70
    24
 71
     3
 72
     8
 73
     4
 74
     0
 42
0.0000000001
 43
0.0000000001
 40
0.0
 40
0.0
 40
0.0
 40
0.0
 40
1.0
 40
1.0
 40
1.0
 40
1.0
 10
179.7024
 20
189.7903
 30
0.0
 10
179.7024
 20
189.7903
 30
0.0
 10
179.7024
 20
191.1027
 30
0.0
 10
179.7024
 20
191.1027
 30
0.0
  0
SPLINE
  5
156
330
1F
100
AcDbEntity
  8
DEFPOINTS
370
    25
100
AcDbSpline
210
0.0
220
0.0
230
1.0
 70
    24
 71
     3
 72
     8
 73
     4
 74
     0
 42
0.0000000001
 43
0.0000000001
 40
0.0
 40
0.0
 40
0.0
 40
0.0
 40
1.0
 40
1.0
 40
1.0
 40
1.0
 10
179.7024
 20
191.7588
 30
0.0
 10
179.7024
 20
191.7588
 30
0.0
 10
179.7024
 20
193.05
 30
0.0
 10
179.7024
 20
193.05
 30
0.0
  0
SPLINE
  5
157
330
1F
100
AcDbEntity
  8
DEFPOINTS
370
    25
100
AcDbSpline
210
0.0
220
0.0
230
1.0
 70
    24
 71
     3
 72
     8
 73
     4
 74
     0
 42
0.0000000001
 43
0.0000000001
 40
0.0
 40
0.0
 40
0.0
 40
0.0
 40
1.0
 40
1.0
 40
1.0
 40
1.0
 10
179.7024
 20
193.7062
 30
0.0
 10
179.7024
 20
193.7062
 30
0.0
 10
179.7024
 20
195.0185
 30
0.0
 10
179.7024
 20
195.0185
 30
0.0
  0
SPLINE
  5
158
330
1F
100
AcDbEntity
  8
DEFPOINTS
370
    25
100
AcDbSpline
210
0.0
220
0.0
230
1.0
 70
    24
 71
     3
 72
     8
 73
     4
 74
     0
 42
0.0000000001
 43
0.0000000001
 40
0.0
 40
0.0
 40
0.0
 40
0.0
 40
1.0
 40
1.0
 40
1.0
 40
1.0
 10
179.7024
 20
195.6747
 30
0.0
 10
179.7024
 20
195.6747
 30
0.0
 10
179.7024
 20
196.9658
 30
0.0
 10
179.7024
 20
196.9658
 30
0.0
  0
SPLINE
  5
159
330
1F
100
AcDbEntity
  8
DEFPOINTS
370
    25
100
AcDbSpline
210
0.0
220
0.0
230
1.0
 70
    24
 71
     3
 72
     8
 73
     4
 74
     0
 42
0.0000000001
 43
0.0000000001
 40
0.0
 40
0.0
 40
0.0
 40
0.0
 40
1.0
 40
1.0
 40
1.0
 40
1.0
 10
179.7024
 20
197.622
 30
0.0
 10
179.7024
 20
197.622
 30
0.0
 10
179.7024
 20
198.9343
 30
0.0
 10
179.7024
 20
198.9343
 30
0.0
  0
SPLINE
  5
15A
330
1F
100
AcDbEntity
  8
DEFPOINTS
370
    25
100
AcDbSpline
210
0.0
220
0.0
230
1.0
 70
    24
 71
     3
 72
     8
 73
     4
 74
     0
 42
0.0000000001
 43
0.0000000001
 40
0.0
 40
0.0
 40
0.0
 40
0.0
 40
1.0
 40
1.0
 40
1.0
 40
1.0
 10
179.7024
 20
199.5905
 30
0.0
 10
179.7024
 20
199.5905
 30
0.0
 10
179.7024
 20
200.8817
 30
0.0
 10
179.7024
 20
200.8817
 30
0.0
  0
SPLINE
  5
15B
330
1F
100
AcDbEntity
  8
DEFPOINTS
370
    25
100
AcDbSpline
210
0.0
220
0.0
230
1.0
 70
    24
 71
     3
 72
     8
 73
     4
 74
     0
 42
0.0000000001
 43
0.0000000001
 40
0.0
 40
0.0
 40
0.0
 40
0.0
 40
1.0
 40
1.0
 40
1.0
 40
1.0
 10
179.7024
 20
201.5378
 30
0.0
 10
179.7024
 20
201.5378
 30
0.0
 10
179.7024
 20
202.8502
 30
0.0
 10
179.7024
 20
202.8502
 30
0.0
  0
SPLINE
  5
15C
330
1F
100
AcDbEntity
  8
DEFPOINTS
370
    25
100
AcDbSpline
210
0.0
220
0.0
230
1.0
 70
    24
 71
     3
 72
     8
 73
     4
 74
     0
 42
0.0000000001
 43
0.0000000001
 40
0.0
 40
0.0
 40
0.0
 40
0.0
 40
1.0
 40
1.0
 40
1.0
 40
1.0
 10
179.7024
 20
203.5063
 30
0.0
 10
179.7024
 20
203.5063
 30
0.0
 10
179.7024
 20
204.7975
 30
0.0
 10
179.7024
 20
204.7975
 30
0.0
  0
SPLINE
  5
15D
330
1F
100
AcDbEntity
  8
DEFPOINTS
370
    25
100
AcDbSpline
210
0.0
220
0.0
230
1.0
 70
    24
 71
     3
 72
     8
 73
     4
 74
     0
 42
0.0000000001
 43
0.0000000001
 40
0.0
 40
0.0
 40
0.0
 40
0.0
 40
1.0
 40
1.0
 40
1.0
 40
1.0
 10
179.7024
 20
205.4537
 30
0.0
 10
179.7024
 20
205.4537
 30
0.0
 10
179.7024
 20
206.766
 30
0.0
 10
179.7024
 20
206.766
 30
0.0
  0
SPLINE
  5
15E
330
1F
100
AcDbEntity
  8
DEFPOINTS
370
    25
100
AcDbSpline
210
0.0
220
0.0
230
1.0
 70
    24
 71
     3
 72
     8
 73
     4
 74
     0
 42
0.0000000001
 43
0.0000000001
 40
0.0
 40
0.0
 40
0.0
 40
0.0
 40
1.0
 40
1.0
 40
1.0
 40
1.0
 10
179.7024
 20
207.4222
 30
0.0
 10
179.7024
 20
207.4222
 30
0.0
 10
179.7024
 20
208.7133
 30
0.0
 10
179.7024
 20
208.7133
 30
0.0
  0
SPLINE
  5
15F
330
1F
100
AcDbEntity
  8
DEFPOINTS
370
    25
100
AcDbSpline
210
0.0
220
0.0
230
1.0
 70
    24
 71
     3
 72
     8
 73
     4
 74
     0
 42
0.0000000001
 43
0.0000000001
 40
0.0
 40
0.0
 40
0.0
 40
0.0
 40
1.0
 40
1.0
 40
1.0
 40
1.0
 10
179.7024
 20
209.3695
 30
0.0
 10
179.7024
 20
209.3695
 30
0.0
 10
179.7024
 20
210.6818
 30
0.0
 10
179.7024
 20
210.6818
 30
0.0
  0
SPLINE
  5
160
330
1F
100
AcDbEntity
  8
DEFPOINTS
370
    25
100
AcDbSpline
210
0.0
220
0.0
230
1.0
 70
    24
 71
     3
 72
     8
 73
     4
 74
     0
 42
0.0000000001
 43
0.0000000001
 40
0.0
 40
0.0
 40
0.0
 40
0.0
 40
1.0
 40
1.0
 40
1.0
 40
1.0
 10
179.7024
 20
211.338
 30
0.0
 10
179.7024
 20
211.338
 30
0.0
 10
179.7024
 20
212.6292
 30
0.0
 10
179.7024
 20
212.6292
 30
0.0
  0
SPLINE
  5
161
330
1F
100
AcDbEntity
  8
DEFPOINTS
370
    25
100
AcDbSpline
210
0.0
220
0.0
230
1.0
 70
    24
 71
     3
 72
     8
 73
     4
 74
     0
 42
0.0000000001
 43
0.0000000001
 40
0.0
 40
0.0
 40
0.0
 40
0.0
 40
1.0
 40
1.0
 40
1.0
 40
1.0
 10
179.7024
 20
213.2853
 30
0.0
 10
179.7024
 20
213.2853
 30
0.0
 10
179.7024
 20
214.5977
 30
0.0
 10
179.7024
 20
214.5977
 30
0.0
  0
SPLINE
  5
162
330
1F
100
AcDbEntity
  8
DEFPOINTS
370
    25
100
AcDbSpline
210
0.0
220
0.0
230
1.0
 70
    24
 71
     3
 72
     8
 73
     4
 74
     0
 42
0.0000000001
 43
0.0000000001
 40
0.0
 40
0.0
 40
0.0
 40
0.0
 40
1.0
 40
1.0
 40
1.0
 40
1.0
 10
179.7024
 20
215.2538
 30
0.0
 10
179.7024
 20
215.2538
 30
0.0
 10
179.7024
 20
216.545
 30
0.0
 10
179.7024
 20
216.545
 30
0.0
  0
SPLINE
  5
163
330
1F
100
AcDbEntity
  8
DEFPOINTS
370
    25
100
AcDbSpline
210
0.0
220
0.0
230
1.0
 70
    24
 71
     3
 72
     8
 73
     4
 74
     0
 42
0.0000000001
 43
0.0000000001
 40
0.0
 40
0.0
 40
0.0
 40
0.0
 40
1.0
 40
1.0
 40
1.0
 40
1.0
 10
179.7024
 20
217.2012
 30
0.0
 10
179.7024
 20
217.2012
 30
0.0
 10
179.7024
 20
218.5135
 30
0.0
 10
179.7024
 20
218.5135
 30
0.0
  0
SPLINE
  5
164
330
1F
100
AcDbEntity
  8
DEFPOINTS
370
    25
100
AcDbSpline
210
0.0
220
0.0
230
1.0
 70
    24
 71
     3
 72
     8
 73
     4
 74
     0
 42
0.0000000001
 43
0.0000000001
 40
0.0
 40
0.0
 40
0.0
 40
0.0
 40
1.0
 40
1.0
 40
1.0
 40
1.0
 10
179.7024
 20
219.1697
 30
0.0
 10
179.7024
 20
219.1697
 30
0.0
 10
179.7024
 20
220.4608
 30
0.0
 10
179.7024
 20
220.4608
 30
0.0
  0
SPLINE
  5
165
330
1F
100
AcDbEntity
  8
DEFPOINTS
370
    25
100
AcDbSpline
210
0.0
220
0.0
230
1.0
 70
    24
 71
     3
 72
     8
 73
     4
 74
     0
 42
0.0000000001
 43
0.0000000001
 40
0.0
 40
0.0
 40
0.0
 40
0.0
 40
1.0
 40
1.0
 40
1.0
 40
1.0
 10
179.7024
 20
221.117
 30
0.0
 10
179.7024
 20
221.117
 30
0.0
 10
179.7024
 20
222.4293
 30
0.0
 10
179.7024
 20
222.4293
 30
0.0
  0
SPLINE
  5
166
330
1F
100
AcDbEntity
  8
DEFPOINTS
370
    25
100
AcDbSpline
210
0.0
220
0.0
230
1.0
 70
    24
 71
     3
 72
     8
 73
     4
 74
     0
 42
0.0000000001
 43
0.0000000001
 40
0.0
 40
0.0
 40
0.0
 40
0.0
 40
1.0
 40
1.0
 40
1.0
 40
1.0
 10
179.7024
 20
223.0855
 30
0.0
 10
179.7024
 20
223.0855
 30
0.0
 10
179.7024
 20
224.3767
 30
0.0
 10
179.7024
 20
224.3767
 30
0.0
  0
SPLINE
  5
167
330
1F
100
AcDbEntity
  8
DEFPOINTS
370
    25
100
AcDbSpline
210
0.0
220
0.0
230
1.0
 70
    24
 71
     3
 72
     8
 73
     4
 74
     0
 42
0.0000000001
 43
0.0000000001
 40
0.0
 40
0.0
 40
0.0
 40
0.0
 40
1.0
 40
1.0
 40
1.0
 40
1.0
 10
179.7024
 20
225.0328
 30
0.0
 10
179.7024
 20
225.0328
 30
0.0
 10
179.7024
 20
226.3452
 30
0.0
 10
179.7024
 20
226.3452
 30
0.0
  0
SPLINE
  5
168
330
1F
100
AcDbEntity
  8
DEFPOINTS
370
    25
100
AcDbSpline
210
0.0
220
0.0
230
1.0
 70
    24
 71
     3
 72
     8
 73
     4
 74
     0
 42
0.0000000001
 43
0.0000000001
 40
0.0
 40
0.0
 40
0.0
 40
0.0
 40
1.0
 40
1.0
 40
1.0
 40
1.0
 10
179.7024
 20
227.0013
 30
0.0
 10
179.7024
 20
227.0013
 30
0.0
 10
179.7024
 20
228.2925
 30
0.0
 10
179.7024
 20
228.2925
 30
0.0
  0
SPLINE
  5
169
330
1F
100
AcDbEntity
  8
DEFPOINTS
370
    25
100
AcDbSpline
210
0.0
220
0.0
230
1.0
 70
    24
 71
     3
 72
     8
 73
     4
 74
     0
 42
0.0000000001
 43
0.0000000001
 40
0.0
 40
0.0
 40
0.0
 40
0.0
 40
1.0
 40
1.0
 40
1.0
 40
1.0
 10
179.7024
 20
228.9487
 30
0.0
 10
179.7024
 20
228.9487
 30
0.0
 10
179.7024
 20
230.261
 30
0.0
 10
179.7024
 20
230.261
 30
0.0
  0
SPLINE
  5
16A
330
1F
100
AcDbEntity
  8
DEFPOINTS
370
    25
100
AcDbSpline
210
0.0
220
0.0
230
1.0
 70
    24
 71
     3
 72
     8
 73
     4
 74
     0
 42
0.0000000001
 43
0.0000000001
 40
0.0
 40
0.0
 40
0.0
 40
0.0
 40
1.0
 40
1.0
 40
1.0
 40
1.0
 10
179.7024
 20
230.9172
 30
0.0
 10
179.7024
 20
230.9172
 30
0.0
 10
179.7024
 20
232.2083
 30
0.0
 10
179.7024
 20
232.2083
 30
0.0
  0
SPLINE
  5
16B
330
1F
100
AcDbEntity
  8
DEFPOINTS
370
    25
100
AcDbSpline
210
0.0
220
0.0
230
1.0
 70
    24
 71
     3
 72
     8
 73
     4
 74
     0
 42
0.0000000001
 43
0.0000000001
 40
0.0
 40
0.0
 40
0.0
 40
0.0
 40
1.0
 40
1.0
 40
1.0
 40
1.0
 10
179.7024
 20
232.8645
 30
0.0
 10
179.7024
 20
232.8645
 30
0.0
 10
179.7024
 20
234.1768
 30
0.0
 10
179.7024
 20
234.1768
 30
0.0
  0
SPLINE
  5
16C
330
1F
100
AcDbEntity
  8
DEFPOINTS
370
    25
100
AcDbSpline
210
0.0
220
0.0
230
1.0
 70
    24
 71
     3
 72
     8
 73
     4
 74
     0
 42
0.0000000001
 43
0.0000000001
 40
0.0
 40
0.0
 40
0.0
 40
0.0
 40
1.0
 40
1.0
 40
1.0
 40
1.0
 10
179.7024
 20
234.833
 30
0.0
 10
179.7024
 20
234.833
 30
0.0
 10
179.7024
 20
236.1665
 30
0.0
 10
179.7024
 20
236.1665
 30
0.0
  0
SPLINE
  5
16D
330
1F
100
AcDbEntity
  8
DEFPOINTS
370
    25
100
AcDbSpline
210
0.0
220
0.0
230
1.0
 70
    24
 71
     3
 72
     8
 73
     4
 74
     0
 42
0.0000000001
 43
0.0000000001
 40
0.0
 40
0.0
 40
0.0
 40
0.0
 40
1.0
 40
1.0
 40
1.0
 40
1.0
 10
307.8031
 20
236.1665
 30
0.0
 10
307.8031
 20
236.1665
 30
0.0
 10
307.8031
 20
234.833
 30
0.0
 10
307.8031
 20
234.833
 30
0.0
  0
SPLINE
  5
16E
330
1F
100
AcDbEntity
  8
DEFPOINTS
370
    25
100
AcDbSpline
210
0.0
220
0.0
230
1.0
 70
    24
 71
     3
 72
     8
 73
     4
 74
     0
 42
0.0000000001
 43
0.0000000001
 40
0.0
 40
0.0
 40
0.0
 40
0.0
 40
1.0
 40
1.0
 40
1.0
 40
1.0
 10
307.8031
 20
234.1768
 30
0.0
 10
307.8031
 20
234.1768
 30
0.0
 10
307.8031
 20
232.8645
 30
0.0
 10
307.8031
 20
232.8645
 30
0.0
  0
SPLINE
  5
16F
330
1F
100
AcDbEntity
  8
DEFPOINTS
370
    25
100
AcDbSpline
210
0.0
220
0.0
230
1.0
 70
    24
 71
     3
 72
     8
 73
     4
 74
     0
 42
0.0000000001
 43
0.0000000001
 40
0.0
 40
0.0
 40
0.0
 40
0.0
 40
1.0
 40
1.0
 40
1.0
 40
1.0
 10
307.8031
 20
232.2083
 30
0.0
 10
307.8031
 20
232.2083
 30
0.0
 10
307.8031
 20
230.9172
 30
0.0
 10
307.8031
 20
230.9172
 30
0.0
  0
SPLINE
  5
170
330
1F
100
AcDbEntity
  8
DEFPOINTS
370
    25
100
AcDbSpline
210
0.0
220
0.0
230
1.0
 70
    24
 71
     3
 72
     8
 73
     4
 74
     0
 42
0.0000000001
 43
0.0000000001
 40
0.0
 40
0.0
 40
0.0
 40
0.0
 40
1.0
 40
1.0
 40
1.0
 40
1.0
 10
307.8031
 20
230.261
 30
0.0
 10
307.8031
 20
230.261
 30
0.0
 10
307.8031
 20
228.9487
 30
0.0
 10
307.8031
 20
228.9487
 30
0.0
  0
SPLINE
  5
171
330
1F
100
AcDbEntity
  8
DEFPOINTS
370
    25
100
AcDbSpline
210
0.0
220
0.0
230
1.0
 70
    24
 71
     3
 72
     8
 73
     4
 74
     0
 42
0.0000000001
 43
0.0000000001
 40
0.0
 40
0.0
 40
0.0
 40
0.0
 40
1.0
 40
1.0
 40
1.0
 40
1.0
 10
307.8031
 20
228.2925
 30
0.0
 10
307.8031
 20
228.2925
 30
0.0
 10
307.8031
 20
227.0013
 30
0.0
 10
307.8031
 20
227.0013
 30
0.0
  0
SPLINE
  5
172
330
1F
100
AcDbEntity
  8
DEFPOINTS
370
    25
100
AcDbSpline
210
0.0
220
0.0
230
1.0
 70
    24
 71
     3
 72
     8
 73
     4
 74
     0
 42
0.0000000001
 43
0.0000000001
 40
0.0
 40
0.0
 40
0.0
 40
0.0
 40
1.0
 40
1.0
 40
1.0
 40
1.0
 10
307.8031
 20
226.3452
 30
0.0
 10
307.8031
 20
226.3452
 30
0.0
 10
307.8031
 20
225.0328
 30
0.0
 10
307.8031
 20
225.0328
 30
0.0
  0
SPLINE
  5
173
330
1F
100
AcDbEntity
  8
DEFPOINTS
370
    25
100
AcDbSpline
210
0.0
220
0.0
230
1.0
 70
    24
 71
     3
 72
     8
 73
     4
 74
     0
 42
0.0000000001
 43
0.0000000001
 40
0.0
 40
0.0
 40
0.0
 40
0.0
 40
1.0
 40
1.0
 40
1.0
 40
1.0
 10
307.8031
 20
224.3767
 30
0.0
 10
307.8031
 20
224.3767
 30
0.0
 10
307.8031
 20
223.0855
 30
0.0
 10
307.8031
 20
223.0855
 30
0.0
  0
SPLINE
  5
174
330
1F
100
AcDbEntity
  8
DEFPOINTS
370
    25
100
AcDbSpline
210
0.0
220
0.0
230
1.0
 70
    24
 71
     3
 72
     8
 73
     4
 74
     0
 42
0.0000000001
 43
0.0000000001
 40
0.0
 40
0.0
 40
0.0
 40
0.0
 40
1.0
 40
1.0
 40
1.0
 40
1.0
 10
307.8031
 20
222.4293
 30
0.0
 10
307.8031
 20
222.4293
 30
0.0
 10
307.8031
 20
221.117
 30
0.0
 10
307.8031
 20
221.117
 30
0.0
  0
SPLINE
  5
175
330
1F
100
AcDbEntity
  8
DEFPOINTS
370
    25
100
AcDbSpline
210
0.0
220
0.0
230
1.0
 70
    24
 71
     3
 72
     8
 73
     4
 74
     0
 42
0.0000000001
 43
0.0000000001
 40
0.0
 40
0.0
 40
0.0
 40
0.0
 40
1.0
 40
1.0
 40
1.0
 40
1.0
 10
307.8031
 20
220.4608
 30
0.0
 10
307.8031
 20
220.4608
 30
0.0
 10
307.8031
 20
219.1697
 30
0.0
 10
307.8031
 20
219.1697
 30
0.0
  0
SPLINE
  5
176
330
1F
100
AcDbEntity
  8
DEFPOINTS
370
    25
100
AcDbSpline
210
0.0
220
0.0
230
1.0
 70
    24
 71
     3
 72
     8
 73
     4
 74
     0
 42
0.0000000001
 43
0.0000000001
 40
0.0
 40
0.0
 40
0.0
 40
0.0
 40
1.0
 40
1.0
 40
1.0
 40
1.0
 10
307.8031
 20
218.5135
 30
0.0
 10
307.8031
 20
218.5135
 30
0.0
 10
307.8031
 20
217.2012
 30
0.0
 10
307.8031
 20
217.2012
 30
0.0
  0
SPLINE
  5
177
330
1F
100
AcDbEntity
  8
DEFPOINTS
370
    25
100
AcDbSpline
210
0.0
220
0.0
230
1.0
 70
    24
 71
     3
 72
     8
 73
     4
 74
     0
 42
0.0000000001
 43
0.0000000001
 40
0.0
 40
0.0
 40
0.0
 40
0.0
 40
1.0
 40
1.0
 40
1.0
 40
1.0
 10
307.8031
 20
216.545
 30
0.0
 10
307.8031
 20
216.545
 30
0.0
 10
307.8031
 20
215.2538
 30
0.0
 10
307.8031
 20
215.2538
 30
0.0
  0
SPLINE
  5
178
330
1F
100
AcDbEntity
  8
DEFPOINTS
370
    25
100
AcDbSpline
210
0.0
220
0.0
230
1.0
 70
    24
 71
     3
 72
     8
 73
     4
 74
     0
 42
0.0000000001
 43
0.0000000001
 40
0.0
 40
0.0
 40
0.0
 40
0.0
 40
1.0
 40
1.0
 40
1.0
 40
1.0
 10
307.8031
 20
214.5977
 30
0.0
 10
307.8031
 20
214.5977
 30
0.0
 10
307.8031
 20
213.2853
 30
0.0
 10
307.8031
 20
213.2853
 30
0.0
  0
SPLINE
  5
179
330
1F
100
AcDbEntity
  8
DEFPOINTS
370
    25
100
AcDbSpline
210
0.0
220
0.0
230
1.0
 70
    24
 71
     3
 72
     8
 73
     4
 74
     0
 42
0.0000000001
 43
0.0000000001
 40
0.0
 40
0.0
 40
0.0
 40
0.0
 40
1.0
 40
1.0
 40
1.0
 40
1.0
 10
307.8031
 20
212.6292
 30
0.0
 10
307.8031
 20
212.6292
 30
0.0
 10
307.8031
 20
211.338
 30
0.0
 10
307.8031
 20
211.338
 30
0.0
  0
SPLINE
  5
17A
330
1F
100
AcDbEntity
  8
DEFPOINTS
370
    25
100
AcDbSpline
210
0.0
220
0.0
230
1.0
 70
    24
 71
     3
 72
     8
 73
     4
 74
     0
 42
0.0000000001
 43
0.0000000001
 40
0.0
 40
0.0
 40
0.0
 40
0.0
 40
1.0
 40
1.0
 40
1.0
 40
1.0
 10
307.8031
 20
210.6818
 30
0.0
 10
307.8031
 20
210.6818
 30
0.0
 10
307.8031
 20
209.3695
 30
0.0
 10
307.8031
 20
209.3695
 30
0.0
  0
SPLINE
  5
17B
330
1F
100
AcDbEntity
  8
DEFPOINTS
370
    25
100
AcDbSpline
210
0.0
220
0.0
230
1.0
 70
    24
 71
     3
 72
     8
 73
     4
 74
     0
 42
0.0000000001
 43
0.0000000001
 40
0.0
 40
0.0
 40
0.0
 40
0.0
 40
1.0
 40
1.0
 40
1.0
 40
1.0
 10
307.8031
 20
208.7133
 30
0.0
 10
307.8031
 20
208.7133
 30
0.0
 10
307.8031
 20
207.4222
 30
0.0
 10
307.8031
 20
207.4222
 30
0.0
  0
SPLINE
  5
17C
330
1F
100
AcDbEntity
  8
DEFPOINTS
370
    25
100
AcDbSpline
210
0.0
220
0.0
230
1.0
 70
    24
 71
     3
 72
     8
 73
     4
 74
     0
 42
0.0000000001
 43
0.0000000001
 40
0.0
 40
0.0
 40
0.0
 40
0.0
 40
1.0
 40
1.0
 40
1.0
 40
1.0
 10
307.8031
 20
206.766
 30
0.0
 10
307.8031
 20
206.766
 30
0.0
 10
307.8031
 20
205.4537
 30
0.0
 10
307.8031
 20
205.4537
 30
0.0
  0
SPLINE
  5
17D
330
1F
100
AcDbEntity
  8
DEFPOINTS
370
    25
100
AcDbSpline
210
0.0
220
0.0
230
1.0
 70
    24
 71
     3
 72
     8
 73
     4
 74
     0
 42
0.0000000001
 43
0.0000000001
 40
0.0
 40
0.0
 40
0.0
 40
0.0
 40
1.0
 40
1.0
 40
1.0
 40
1.0
 10
307.8031
 20
204.7975
 30
0.0
 10
307.8031
 20
204.7975
 30
0.0
 10
307.8031
 20
203.5063
 30
0.0
 10
307.8031
 20
203.5063
 30
0.0
  0
SPLINE
  5
17E
330
1F
100
AcDbEntity
  8
DEFPOINTS
370
    25
100
AcDbSpline
210
0.0
220
0.0
230
1.0
 70
    24
 71
     3
 72
     8
 73
     4
 74
     0
 42
0.0000000001
 43
0.0000000001
 40
0.0
 40
0.0
 40
0.0
 40
0.0
 40
1.0
 40
1.0
 40
1.0
 40
1.0
 10
307.8031
 20
202.8502
 30
0.0
 10
307.8031
 20
202.8502
 30
0.0
 10
307.8031
 20
201.5378
 30
0.0
 10
307.8031
 20
201.5378
 30
0.0
  0
SPLINE
  5
17F
330
1F
100
AcDbEntity
  8
DEFPOINTS
370
    25
100
AcDbSpline
210
0.0
220
0.0
230
1.0
 70
    24
 71
     3
 72
     8
 73
     4
 74
     0
 42
0.0000000001
 43
0.0000000001
 40
0.0
 40
0.0
 40
0.0
 40
0.0
 40
1.0
 40
1.0
 40
1.0
 40
1.0
 10
307.8031
 20
200.8817
 30
0.0
 10
307.8031
 20
200.8817
 30
0.0
 10
307.8031
 20
199.5905
 30
0.0
 10
307.8031
 20
199.5905
 30
0.0
  0
SPLINE
  5
180
330
1F
100
AcDbEntity
  8
DEFPOINTS
370
    25
100
AcDbSpline
210
0.0
220
0.0
230
1.0
 70
    24
 71
     3
 72
     8
 73
     4
 74
     0
 42
0.0000000001
 43
0.0000000001
 40
0.0
 40
0.0
 40
0.0
 40
0.0
 40
1.0
 40
1.0
 40
1.0
 40
1.0
 10
307.8031
 20
198.9343
 30
0.0
 10
307.8031
 20
198.9343
 30
0.0
 10
307.8031
 20
197.622
 30
0.0
 10
307.8031
 20
197.622
 30
0.0
  0
SPLINE
  5
181
330
1F
100
AcDbEntity
  8
DEFPOINTS
370
    25
100
AcDbSpline
210
0.0
220
0.0
230
1.0
 70
    24
 71
     3
 72
     8
 73
     4
 74
     0
 42
0.0000000001
 43
0.0000000001
 40
0.0
 40
0.0
 40
0.0
 40
0.0
 40
1.0
 40
1.0
 40
1.0
 40
1.0
 10
307.8031
 20
196.9658
 30
0.0
 10
307.8031
 20
196.9658
 30
0.0
 10
307.8031
 20
195.6747
 30
0.0
 10
307.8031
 20
195.6747
 30
0.0
  0
SPLINE
  5
182
330
1F
100
AcDbEntity
  8
DEFPOINTS
370
    25
100
AcDbSpline
210
0.0
220
0.0
230
1.0
 70
    24
 71
     3
 72
     8
 73
     4
 74
     0
 42
0.0000000001
 43
0.0000000001
 40
0.0
 40
0.0
 40
0.0
 40
0.0
 40
1.0
 40
1.0
 40
1.0
 40
1.0
 10
307.8031
 20
195.0185
 30
0.0
 10
307.8031
 20
195.0185
 30
0.0
 10
307.8031
 20
193.7062
 30
0.0
 10
307.8031
 20
193.7062
 30
0.0
  0
SPLINE
  5
183
330
1F
100
AcDbEntity
  8
DEFPOINTS
370
    25
100
AcDbSpline
210
0.0
220
0.0
230
1.0
 70
    24
 71
     3
 72
     8
 73
     4
 74
     0
 42
0.0000000001
 43
0.0000000001
 40
0.0
 40
0.0
 40
0.0
 40
0.0
 40
1.0
 40
1.0
 40
1.0
 40
1.0
 10
307.8031
 20
193.05
 30
0.0
 10
307.8031
 20
193.05
 30
0.0
 10
307.8031
 20
191.7588
 30
0.0
 10
307.8031
 20
191.7588
 30
0.0
  0
SPLINE
  5
184
330
1F
100
AcDbEntity
  8
DEFPOINTS
370
    25
100
AcDbSpline
210
0.0
220
0.0
230
1.0
 70
    24
 71
     3
 72
     8
 73
     4
 74
     0
 42
0.0000000001
 43
0.0000000001
 40
0.0
 40
0.0
 40
0.0
 40
0.0
 40
1.0
 40
1.0
 40
1.0
 40
1.0
 10
307.8031
 20
191.1027
 30
0.0
 10
307.8031
 20
191.1027
 30
0.0
 10
307.8031
 20
189.7903
 30
0.0
 10
307.8031
 20
189.7903
 30
0.0
  0
SPLINE
  5
185
330
1F
100
AcDbEntity
  8
DEFPOINTS
370
    25
100
AcDbSpline
210
0.0
220
0.0
230
1.0
 70
    24
 71
     3
 72
     8
 73
     4
 74
     0
 42
0.0000000001
 43
0.0000000001
 40
0.0
 40
0.0
 40
0.0
 40
0.0
 40
1.0
 40
1.0
 40
1.0
 40
1.0
 10
307.8031
 20
189.1342
 30
0.0
 10
307.8031
 20
189.1342
 30
0.0
 10
307.8031
 20
187.843
 30
0.0
 10
307.8031
 20
187.843
 30
0.0
  0
SPLINE
  5
186
330
1F
100
AcDbEntity
  8
DEFPOINTS
370
    25
100
AcDbSpline
210
0.0
220
0.0
230
1.0
 70
    24
 71
     3
 72
     8
 73
     4
 74
     0
 42
0.0000000001
 43
0.0000000001
 40
0.0
 40
0.0
 40
0.0
 40
0.0
 40
1.0
 40
1.0
 40
1.0
 40
1.0
 10
307.8031
 20
187.1868
 30
0.0
 10
307.8031
 20
187.1868
 30
0.0
 10
307.8031
 20
185.8745
 30
0.0
 10
307.8031
 20
185.8745
 30
0.0
  0
SPLINE
  5
187
330
1F
100
AcDbEntity
  8
DEFPOINTS
370
    25
100
AcDbSpline
210
0.0
220
0.0
230
1.0
 70
    24
 71
     3
 72
     8
 73
     4
 74
     0
 42
0.0000000001
 43
0.0000000001
 40
0.0
 40
0.0
 40
0.0
 40
0.0
 40
1.0
 40
1.0
 40
1.0
 40
1.0
 10
307.8031
 20
185.2183
 30
0.0
 10
307.8031
 20
185.2183
 30
0.0
 10
307.8031
 20
183.9272
 30
0.0
 10
307.8031
 20
183.9272
 30
0.0
  0
SPLINE
  5
188
330
1F
100
AcDbEntity
  8
DEFPOINTS
370
    25
100
AcDbSpline
210
0.0
220
0.0
230
1.0
 70
    24
 71
     3
 72
     8
 73
     4
 74
     0
 42
0.0000000001
 43
0.0000000001
 40
0.0
 40
0.0
 40
0.0
 40
0.0
 40
1.0
 40
1.0
 40
1.0
 40
1.0
 10
307.8031
 20
183.271
 30
0.0
 10
307.8031
 20
183.271
 30
0.0
 10
307.8031
 20
181.9587
 30
0.0
 10
307.8031
 20
181.9587
 30
0.0
  0
SPLINE
  5
189
330
1F
100
AcDbEntity
  8
DEFPOINTS
370
    25
100
AcDbSpline
210
0.0
220
0.0
230
1.0
 70
    24
 71
     3
 72
     8
 73
     4
 74
     0
 42
0.0000000001
 43
0.0000000001
 40
0.0
 40
0.0
 40
0.0
 40
0.0
 40
1.0
 40
1.0
 40
1.0
 40
1.0
 10
307.8031
 20
181.3025
 30
0.0
 10
307.8031
 20
181.3025
 30
0.0
 10
307.8031
 20
180.0113
 30
0.0
 10
307.8031
 20
180.0113
 30
0.0
  0
SPLINE
  5
18A
330
1F
100
AcDbEntity
  8
DEFPOINTS
370
    25
100
AcDbSpline
210
0.0
220
0.0
230
1.0
 70
    24
 71
     3
 72
     8
 73
     4
 74
     0
 42
0.0000000001
 43
0.0000000001
 40
0.0
 40
0.0
 40
0.0
 40
0.0
 40
1.0
 40
1.0
 40
1.0
 40
1.0
 10
307.8031
 20
179.3552
 30
0.0
 10
307.8031
 20
179.3552
 30
0.0
 10
307.8031
 20
178.0428
 30
0.0
 10
307.8031
 20
178.0428
 30
0.0
  0
SPLINE
  5
18B
330
1F
100
AcDbEntity
  8
DEFPOINTS
370
    25
100
AcDbSpline
210
0.0
220
0.0
230
1.0
 70
    24
 71
     3
 72
     8
 73
     4
 74
     0
 42
0.0000000001
 43
0.0000000001
 40
0.0
 40
0.0
 40
0.0
 40
0.0
 40
1.0
 40
1.0
 40
1.0
 40
1.0
 10
307.8031
 20
177.3867
 30
0.0
 10
307.8031
 20
177.3867
 30
0.0
 10
307.8031
 20
176.0955
 30
0.0
 10
307.8031
 20
176.0955
 30
0.0
  0
SPLINE
  5
18C
330
1F
100
AcDbEntity
  8
DEFPOINTS
370
    25
100
AcDbSpline
210
0.0
220
0.0
230
1.0
 70
    24
 71
     3
 72
     8
 73
     4
 74
     0
 42
0.0000000001
 43
0.0000000001
 40
0.0
 40
0.0
 40
0.0
 40
0.0
 40
1.0
 40
1.0
 40
1.0
 40
1.0
 10
307.8031
 20
175.4393
 30
0.0
 10
307.8031
 20
175.4393
 30
0.0
 10
307.8031
 20
174.127
 30
0.0
 10
307.8031
 20
174.127
 30
0.0
  0
SPLINE
  5
18D
330
1F
100
AcDbEntity
  8
DEFPOINTS
370
    25
100
AcDbSpline
210
0.0
220
0.0
230
1.0
 70
    24
 71
     3
 72
     8
 73
     4
 74
     0
 42
0.0000000001
 43
0.0000000001
 40
0.0
 40
0.0
 40
0.0
 40
0.0
 40
1.0
 40
1.0
 40
1.0
 40
1.0
 10
307.8031
 20
173.4708
 30
0.0
 10
307.8031
 20
173.4708
 30
0.0
 10
307.8031
 20
172.1797
 30
0.0
 10
307.8031
 20
172.1797
 30
0.0
  0
SPLINE
  5
18E
330
1F
100
AcDbEntity
  8
DEFPOINTS
370
    25
100
AcDbSpline
210
0.0
220
0.0
230
1.0
 70
    24
 71
     3
 72
     8
 73
     4
 74
     0
 42
0.0000000001
 43
0.0000000001
 40
0.0
 40
0.0
 40
0.0
 40
0.0
 40
1.0
 40
1.0
 40
1.0
 40
1.0
 10
307.8031
 20
171.5235
 30
0.0
 10
307.8031
 20
171.5235
 30
0.0
 10
307.8031
 20
170.2112
 30
0.0
 10
307.8031
 20
170.2112
 30
0.0
  0
SPLINE
  5
18F
330
1F
100
AcDbEntity
  8
DEFPOINTS
370
    25
100
AcDbSpline
210
0.0
220
0.0
230
1.0
 70
    24
 71
     3
 72
     8
 73
     4
 74
     0
 42
0.0000000001
 43
0.0000000001
 40
0.0
 40
0.0
 40
0.0
 40
0.0
 40
1.0
 40
1.0
 40
1.0
 40
1.0
 10
307.8031
 20
169.555
 30
0.0
 10
307.8031
 20
169.555
 30
0.0
 10
307.8031
 20
168.2638
 30
0.0
 10
307.8031
 20
168.2638
 30
0.0
  0
SPLINE
  5
190
330
1F
100
AcDbEntity
  8
DEFPOINTS
370
    25
100
AcDbSpline
210
0.0
220
0.0
230
1.0
 70
    24
 71
     3
 72
     8
 73
     4
 74
     0
 42
0.0000000001
 43
0.0000000001
 40
0.0
 40
0.0
 40
0.0
 40
0.0
 40
1.0
 40
1.0
 40
1.0
 40
1.0
 10
307.8031
 20
167.6077
 30
0.0
 10
307.8031
 20
167.6077
 30
0.0
 10
307.8031
 20
166.2953
 30
0.0
 10
307.8031
 20
166.2953
 30
0.0
  0
SPLINE
  5
191
330
1F
100
AcDbEntity
  8
DEFPOINTS
370
    25
100
AcDbSpline
210
0.0
220
0.0
230
1.0
 70
    24
 71
     3
 72
     8
 73
     4
 74
     0
 42
0.0000000001
 43
0.0000000001
 40
0.0
 40
0.0
 40
0.0
 40
0.0
 40
1.0
 40
1.0
 40
1.0
 40
1.0
 10
307.8031
 20
165.6392
 30
0.0
 10
307.8031
 20
165.6392
 30
0.0
 10
307.8031
 20
164.348
 30
0.0
 10
307.8031
 20
164.348
 30
0.0
  0
SPLINE
  5
192
330
1F
100
AcDbEntity
  8
DEFPOINTS
370
    25
100
AcDbSpline
210
0.0
220
0.0
230
1.0
 70
    24
 71
     3
 72
     8
 73
     4
 74
     0
 42
0.0000000001
 43
0.0000000001
 40
0.0
 40
0.0
 40
0.0
 40
0.0
 40
1.0
 40
1.0
 40
1.0
 40
1.0
 10
307.8031
 20
163.6918
 30
0.0
 10
307.8031
 20
163.6918
 30
0.0
 10
307.8031
 20
162.3795
 30
0.0
 10
307.8031
 20
162.3795
 30
0.0
  0
SPLINE
  5
193
330
1F
100
AcDbEntity
  8
DEFPOINTS
370
    25
100
AcDbSpline
210
0.0
220
0.0
230
1.0
 70
    24
 71
     3
 72
     8
 73
     4
 74
     0
 42
0.0000000001
 43
0.0000000001
 40
0.0
 40
0.0
 40
0.0
 40
0.0
 40
1.0
 40
1.0
 40
1.0
 40
1.0
 10
307.8031
 20
161.7233
 30
0.0
 10
307.8031
 20
161.7233
 30
0.0
 10
307.8031
 20
160.4322
 30
0.0
 10
307.8031
 20
160.4322
 30
0.0
  0
SPLINE
  5
194
330
1F
100
AcDbEntity
  8
DEFPOINTS
370
    25
100
AcDbSpline
210
0.0
220
0.0
230
1.0
 70
    24
 71
     3
 72
     8
 73
     4
 74
     0
 42
0.0000000001
 43
0.0000000001
 40
0.0
 40
0.0
 40
0.0
 40
0.0
 40
1.0
 40
1.0
 40
1.0
 40
1.0
 10
307.8031
 20
159.776
 30
0.0
 10
307.8031
 20
159.776
 30
0.0
 10
307.8031
 20
158.4637
 30
0.0
 10
307.8031
 20
158.4637
 30
0.0
  0
SPLINE
  5
195
330
1F
100
AcDbEntity
  8
DEFPOINTS
370
    25
100
AcDbSpline
210
0.0
220
0.0
230
1.0
 70
    24
 71
     3
 72
     8
 73
     4
 74
     0
 42
0.0000000001
 43
0.0000000001
 40
0.0
 40
0.0
 40
0.0
 40
0.0
 40
1.0
 40
1.0
 40
1.0
 40
1.0
 10
307.8031
 20
157.8075
 30
0.0
 10
307.8031
 20
157.8075
 30
0.0
 10
307.8031
 20
156.4528
 30
0.0
 10
307.8031
 20
156.4528
 30
0.0
  0
SPLINE
  5
196
330
1F
100
AcDbEntity
  8
DEFPOINTS
370
    25
100
AcDbSpline
210
0.0
220
0.0
230
1.0
 70
    24
 71
     3
 72
     8
 73
     4
 74
     0
 42
0.0000000001
 43
0.0000000001
 40
0.0
 40
0.0
 40
0.0
 40
0.0
 40
1.0
 40
1.0
 40
1.0
 40
1.0
 10
308.8402
 20
237.2248
 30
0.0
 10
308.8402
 20
237.2248
 30
0.0
 10
308.8402
 20
156.4528
 30
0.0
 10
308.8402
 20
156.4528
 30
0.0
  0
SPLINE
  5
197
330
1F
100
AcDbEntity
  8
DEFPOINTS
370
    25
100
AcDbSpline
210
0.0
220
0.0
230
1.0
 70
    24
 71
     3
 72
     8
 73
     4
 74
     0
 42
0.0000000001
 43
0.0000000001
 40
0.0
 40
0.0
 40
0.0
 40
0.0
 40
1.0
 40
1.0
 40
1.0
 40
1.0
 10
181.2687
 20
239.8283
 30
0.0
 10
181.2687
 20
239.8283
 30
0.0
 10
306.2367
 20
239.8283
 30
0.0
 10
306.2367
 20
239.8283
 30
0.0
  0
SPLINE
  5
198
330
1F
100
AcDbEntity
  8
DEFPOINTS
370
    25
100
AcDbSpline
210
0.0
220
0.0
230
1.0
 70
    24
 71
     3
 72
     8
 73
     4
 74
     0
 42
0.0000000001
 43
0.0000000001
 40
0.0
 40
0.0
 40
0.0
 40
0.0
 40
1.0
 40
1.0
 40
1.0
 40
1.0
 10
178.6441
 20
156.4528
 30
0.0
 10
178.6441
 20
156.4528
 30
0.0
 10
178.6441
 20
237.2248
 30
0.0
 10
178.6441
 20
237.2248
 30
0.0
  0
SPLINE
  5
199
330
1F
100
AcDbEntity
  8
DEFPOINTS
370
    25
100
AcDbSpline
210
0.0
220
0.0
230
1.0
 70
     8
 71
     3
 72
     8
 73
     4
 74
     0
 42
0.0000000001
 43
0.0000000001
 40
0.0
 40
0.0
 40
0.0
 40
0.0
 40
1.0
 40
1.0
 40
1.0
 40
1.0
 10
181.2687
 20
239.8283
 30
0.0
 10
179.7959
 20
239.8456
 30
0.0
 10
178.6801
 20
238.6578
 30
0.0
 10
178.6441
 20
237.2248
 30
0.0
  0
SPLINE
  5
19A
330
1F
100
AcDbEntity
  8
DEFPOINTS
370
    25
100
AcDbSpline
210
0.0
220
0.0
230
1.0
 70
     8
 71
     3
 72
    12
 73
     8
 74
     0
 42
0.0000000001
 43
0.0000000001
 40
0.0
 40
0.0
 40
0.0
 40
0.0
 40
0.5
 40
0.5
 40
0.5
 40
0.5
 40
1.0
 40
1.0
 40
1.0
 40
1.0
 10
181.7767
 20
239.2992
 30
0.0
 10
181.7767
 20
239.2992
 30
0.0
 10
181.3322
 20
239.278
 30
0.0
 10
181.3322
 20
239.278
 30
0.0
 10
181.3322
 20
239.278
 30
0.0
 10
181.3322
 20
239.278
 30
0.0
 10
181.0571
 20
239.1933
 30
0.0
 10
181.0571
 20
239.1933
 30
0.0
  0
SPLINE
  5
19B
330
1F
100
AcDbEntity
  8
DEFPOINTS
370
    25
100
AcDbSpline
210
0.0
220
0.0
230
1.0
 70
     8
 71
     3
 72
    16
 73
    12
 74
     0
 42
0.0000000001
 43
0.0000000001
 40
0.0
 40
0.0
 40
0.0
 40
0.0
 40
0.3333333333333333
 40
0.3333333333333333
 40
0.3333333333333333
 40
0.3333333333333333
 40
0.6666666666666666
 40
0.6666666666666666
 40
0.6666666666666666
 40
0.6666666666666666
 40
1.0
 40
1.0
 40
1.0
 40
1.0
 10
180.4432
 20
238.9393
 30
0.0
 10
180.4432
 20
238.9393
 30
0.0
 10
180.1046
 20
238.7065
 30
0.0
 10
180.1046
 20
238.7065
 30
0.0
 10
180.1046
 20
238.7065
 30
0.0
 10
180.1046
 20
238.7065
 30
0.0
 10
179.7871
 20
238.3678
 30
0.0
 10
179.7871
 20
238.3678
 30
0.0
 10
179.7871
 20
238.3678
 30
0.0
 10
179.7871
 20
238.3678
 30
0.0
 10
179.5331
 20
238.0292
 30
0.0
 10
179.5331
 20
238.0292
 30
0.0
  0
SPLINE
  5
19C
330
1F
100
AcDbEntity
  8
DEFPOINTS
370
    25
100
AcDbSpline
210
0.0
220
0.0
230
1.0
 70
     8
 71
     3
 72
    12
 73
     8
 74
     0
 42
0.0000000001
 43
0.0000000001
 40
0.0
 40
0.0
 40
0.0
 40
0.0
 40
0.5
 40
0.5
 40
0.5
 40
0.5
 40
1.0
 40
1.0
 40
1.0
 40
1.0
 10
179.2791
 20
237.4365
 30
0.0
 10
179.2791
 20
237.4365
 30
0.0
 10
179.2156
 20
237.1613
 30
0.0
 10
179.2156
 20
237.1613
 30
0.0
 10
179.2156
 20
237.1613
 30
0.0
 10
179.2156
 20
237.1613
 30
0.0
 10
179.1732
 20
236.6957
 30
0.0
 10
179.1732
 20
236.6957
 30
0.0
  0
SPLINE
  5
19D
330
1F
100
AcDbEntity
  8
DEFPOINTS
370
    25
100
AcDbSpline
210
0.0
220
0.0
230
1.0
 70
     8
 71
     3
 72
    12
 73
     8
 74
     0
 42
0.0000000001
 43
0.0000000001
 40
0.0
 40
0.0
 40
0.0
 40
0.0
 40
0.5
 40
0.5
 40
0.5
 40
0.5
 40
1.0
 40
1.0
 40
1.0
 40
1.0
 10
182.3059
 20
238.7912
 30
0.0
 10
182.3059
 20
238.7912
 30
0.0
 10
181.8614
 20
238.7488
 30
0.0
 10
181.8614
 20
238.7488
 30
0.0
 10
181.8614
 20
238.7488
 30
0.0
 10
181.8614
 20
238.7488
 30
0.0
 10
181.5651
 20
238.6642
 30
0.0
 10
181.5651
 20
238.6642
 30
0.0
  0
SPLINE
  5
19E
330
1F
100
AcDbEntity
  8
DEFPOINTS
370
    25
100
AcDbSpline
210
0.0
220
0.0
230
1.0
 70
     8
 71
     3
 72
    16
 73
    12
 74
     0
 42
0.0000000001
 43
0.0000000001
 40
0.0
 40
0.0
 40
0.0
 40
0.0
 40
0.3333333333333333
 40
0.3333333333333333
 40
0.3333333333333333
 40
0.3333333333333333
 40
0.6666666666666666
 40
0.6666666666666666
 40
0.6666666666666666
 40
0.6666666666666666
 40
1.0
 40
1.0
 40
1.0
 40
1.0
 10
180.9724
 20
238.4102
 30
0.0
 10
180.9724
 20
238.4102
 30
0.0
 10
180.6337
 20
238.1773
 30
0.0
 10
180.6337
 20
238.1773
 30
0.0
 10
180.6337
 20
238.1773
 30
0.0
 10
180.6337
 20
238.1773
 30
0.0
 10
180.2951
 20
237.8598
 30
0.0
 10
180.2951
 20
237.8598
 30
0.0
 10
180.2951
 20
237.8598
 30
0.0
 10
180.2951
 20
237.8598
 30
0.0
 10
180.0622
 20
237.5
 30
0.0
 10
180.0622
 20
237.5
 30
0.0
  0
SPLINE
  5
19F
330
1F
100
AcDbEntity
  8
DEFPOINTS
370
    25
100
AcDbSpline
210
0.0
220
0.0
230
1.0
 70
     8
 71
     3
 72
    12
 73
     8
 74
     0
 42
0.0000000001
 43
0.0000000001
 40
0.0
 40
0.0
 40
0.0
 40
0.0
 40
0.5
 40
0.5
 40
0.5
 40
0.5
 40
1.0
 40
1.0
 40
1.0
 40
1.0
 10
179.8082
 20
236.9073
 30
0.0
 10
179.8082
 20
236.9073
 30
0.0
 10
179.7447
 20
236.6322
 30
0.0
 10
179.7447
 20
236.6322
 30
0.0
 10
179.7447
 20
236.6322
 30
0.0
 10
179.7447
 20
236.6322
 30
0.0
 10
179.7024
 20
236.1665
 30
0.0
 10
179.7024
 20
236.1665
 30
0.0
  0
SPLINE
  5
1A0
330
1F
100
AcDbEntity
  8
DEFPOINTS
370
    25
100
AcDbSpline
210
0.0
220
0.0
230
1.0
 70
     8
 71
     3
 72
     8
 73
     4
 74
     0
 42
0.0000000001
 43
0.0000000001
 40
0.0
 40
0.0
 40
0.0
 40
0.0
 40
1.0
 40
1.0
 40
1.0
 40
1.0
 10
308.8402
 20
237.2248
 30
0.0
 10
308.8508
 20
238.6508
 30
0.0
 10
307.6627
 20
239.8393
 30
0.0
 10
306.2367
 20
239.8283
 30
0.0
  0
SPLINE
  5
1A1
330
1F
100
AcDbEntity
  8
DEFPOINTS
370
    25
100
AcDbSpline
210
0.0
220
0.0
230
1.0
 70
     8
 71
     3
 72
    12
 73
     8
 74
     0
 42
0.0000000001
 43
0.0000000001
 40
0.0
 40
0.0
 40
0.0
 40
0.0
 40
0.5
 40
0.5
 40
0.5
 40
0.5
 40
1.0
 40
1.0
 40
1.0
 40
1.0
 10
308.3111
 20
236.6957
 30
0.0
 10
308.3111
 20
236.6957
 30
0.0
 10
308.2899
 20
237.1613
 30
0.0
 10
308.2899
 20
237.1613
 30
0.0
 10
308.2899
 20
237.1613
 30
0.0
 10
308.2899
 20
237.1613
 30
0.0
 10
308.2052
 20
237.4365
 30
0.0
 10
308.2052
 20
237.4365
 30
0.0
  0
SPLINE
  5
1A2
330
1F
100
AcDbEntity
  8
DEFPOINTS
370
    25
100
AcDbSpline
210
0.0
220
0.0
230
1.0
 70
     8
 71
     3
 72
    16
 73
    12
 74
     0
 42
0.0000000001
 43
0.0000000001
 40
0.0
 40
0.0
 40
0.0
 40
0.0
 40
0.3333333333333333
 40
0.3333333333333333
 40
0.3333333333333333
 40
0.3333333333333333
 40
0.6666666666666666
 40
0.6666666666666666
 40
0.6666666666666666
 40
0.6666666666666666
 40
1.0
 40
1.0
 40
1.0
 40
1.0
 10
307.9512
 20
238.0292
 30
0.0
 10
307.9512
 20
238.0292
 30
0.0
 10
307.7184
 20
238.3678
 30
0.0
 10
307.7184
 20
238.3678
 30
0.0
 10
307.7184
 20
238.3678
 30
0.0
 10
307.7184
 20
238.3678
 30
0.0
 10
307.3797
 20
238.7065
 30
0.0
 10
307.3797
 20
238.7065
 30
0.0
 10
307.3797
 20
238.7065
 30
0.0
 10
307.3797
 20
238.7065
 30
0.0
 10
307.0411
 20
238.9393
 30
0.0
 10
307.0411
 20
238.9393
 30
0.0
  0
SPLINE
  5
1A3
330
1F
100
AcDbEntity
  8
DEFPOINTS
370
    25
100
AcDbSpline
210
0.0
220
0.0
230
1.0
 70
     8
 71
     3
 72
    12
 73
     8
 74
     0
 42
0.0000000001
 43
0.0000000001
 40
0.0
 40
0.0
 40
0.0
 40
0.0
 40
0.5
 40
0.5
 40
0.5
 40
0.5
 40
1.0
 40
1.0
 40
1.0
 40
1.0
 10
306.4484
 20
239.1933
 30
0.0
 10
306.4484
 20
239.1933
 30
0.0
 10
306.1521
 20
239.278
 30
0.0
 10
306.1521
 20
239.278
 30
0.0
 10
306.1521
 20
239.278
 30
0.0
 10
306.1521
 20
239.278
 30
0.0
 10
305.7076
 20
239.2992
 30
0.0
 10
305.7076
 20
239.2992
 30
0.0
  0
SPLINE
  5
1A4
330
1F
100
AcDbEntity
  8
DEFPOINTS
370
    25
100
AcDbSpline
210
0.0
220
0.0
230
1.0
 70
     8
 71
     3
 72
    12
 73
     8
 74
     0
 42
0.0000000001
 43
0.0000000001
 40
0.0
 40
0.0
 40
0.0
 40
0.0
 40
0.5
 40
0.5
 40
0.5
 40
0.5
 40
1.0
 40
1.0
 40
1.0
 40
1.0
 10
307.8031
 20
236.1665
 30
0.0
 10
307.8031
 20
236.1665
 30
0.0
 10
307.7607
 20
236.6322
 30
0.0
 10
307.7607
 20
236.6322
 30
0.0
 10
307.7607
 20
236.6322
 30
0.0
 10
307.7607
 20
236.6322
 30
0.0
 10
307.6761
 20
236.9073
 30
0.0
 10
307.6761
 20
236.9073
 30
0.0
  0
SPLINE
  5
1A5
330
1F
100
AcDbEntity
  8
DEFPOINTS
370
    25
100
AcDbSpline
210
0.0
220
0.0
230
1.0
 70
     8
 71
     3
 72
    16
 73
    12
 74
     0
 42
0.0000000001
 43
0.0000000001
 40
0.0
 40
0.0
 40
0.0
 40
0.0
 40
0.3333333333333333
 40
0.3333333333333333
 40
0.3333333333333333
 40
0.3333333333333333
 40
0.6666666666666666
 40
0.6666666666666666
 40
0.6666666666666666
 40
0.6666666666666666
 40
1.0
 40
1.0
 40
1.0
 40
1.0
 10
307.4221
 20
237.5
 30
0.0
 10
307.4221
 20
237.5
 30
0.0
 10
307.1892
 20
237.8598
 30
0.0
 10
307.1892
 20
237.8598
 30
0.0
 10
307.1892
 20
237.8598
 30
0.0
 10
307.1892
 20
237.8598
 30
0.0
 10
306.8717
 20
238.1773
 30
0.0
 10
306.8717
 20
238.1773
 30
0.0
 10
306.8717
 20
238.1773
 30
0.0
 10
306.8717
 20
238.1773
 30
0.0
 10
306.5119
 20
238.4102
 30
0.0
 10
306.5119
 20
238.4102
 30
0.0
  0
SPLINE
  5
1A6
330
1F
100
AcDbEntity
  8
DEFPOINTS
370
    25
100
AcDbSpline
210
0.0
220
0.0
230
1.0
 70
     8
 71
     3
 72
    12
 73
     8
 74
     0
 42
0.0000000001
 43
0.0000000001
 40
0.0
 40
0.0
 40
0.0
 40
0.0
 40
0.5
 40
0.5
 40
0.5
 40
0.5
 40
1.0
 40
1.0
 40
1.0
 40
1.0
 10
305.9192
 20
238.6642
 30
0.0
 10
305.9192
 20
238.6642
 30
0.0
 10
305.6441
 20
238.7488
 30
0.0
 10
305.6441
 20
238.7488
 30
0.0
 10
305.6441
 20
238.7488
 30
0.0
 10
305.6441
 20
238.7488
 30
0.0
 10
305.1784
 20
238.7912
 30
0.0
 10
305.1784
 20
238.7912
 30
0.0
  0
SPLINE
  5
1A7
330
1F
100
AcDbEntity
  8
DEFPOINTS
370
    25
100
AcDbSpline
210
0.0
220
0.0
230
1.0
 70
    24
 71
     3
 72
     8
 73
     4
 74
     0
 42
0.0000000001
 43
0.0000000001
 40
0.0
 40
0.0
 40
0.0
 40
0.0
 40
1.0
 40
1.0
 40
1.0
 40
1.0
 10
178.6441
 20
156.4528
 30
0.0
 10
178.6441
 20
156.4528
 30
0.0
 10
179.1732
 20
156.4528
 30
0.0
 10
179.1732
 20
156.4528
 30
0.0
  0
SPLINE
  5
1A8
330
1F
100
AcDbEntity
  8
DEFPOINTS
370
    25
100
AcDbSpline
210
0.0
220
0.0
230
1.0
 70
    24
 71
     3
 72
     8
 73
     4
 74
     0
 42
0.0000000001
 43
0.0000000001
 40
0.0
 40
0.0
 40
0.0
 40
0.0
 40
1.0
 40
1.0
 40
1.0
 40
1.0
 10
308.3111
 20
156.4528
 30
0.0
 10
308.3111
 20
156.4528
 30
0.0
 10
308.8402
 20
156.4528
 30
0.0
 10
308.8402
 20
156.4528
 30
0.0
  0
SPLINE
  5
1A9
330
1F
100
AcDbEntity
  8
DEFPOINTS
370
    25
100
AcDbSpline
210
0.0
220
0.0
230
1.0
 70
    24
 71
     3
 72
     8
 73
     4
 74
     0
 42
0.0000000001
 43
0.0000000001
 40
0.0
 40
0.0
 40
0.0
 40
0.0
 40
1.0
 40
1.0
 40
1.0
 40
1.0
 10
179.7024
 20
158.4002
 30
0.0
 10
179.7024
 20
158.4002
 30
0.0
 10
179.7024
 20
147.5628
 30
0.0
 10
179.7024
 20
147.5628
 30
0.0
  0
SPLINE
  5
1AA
330
1F
100
AcDbEntity
  8
DEFPOINTS
370
    25
100
AcDbSpline
210
0.0
220
0.0
230
1.0
 70
    24
 71
     3
 72
     8
 73
     4
 74
     0
 42
0.0000000001
 43
0.0000000001
 40
0.0
 40
0.0
 40
0.0
 40
0.0
 40
1.0
 40
1.0
 40
1.0
 40
1.0
 10
307.8031
 20
158.4002
 30
0.0
 10
307.8031
 20
158.4002
 30
0.0
 10
307.8031
 20
147.5628
 30
0.0
 10
307.8031
 20
147.5628
 30
0.0
  0
SPLINE
  5
1AB
330
1F
100
AcDbEntity
  8
DEFPOINTS
370
    25
100
AcDbSpline
210
0.0
220
0.0
230
1.0
 70
    24
 71
     3
 72
     8
 73
     4
 74
     0
 42
0.0000000001
 43
0.0000000001
 40
0.0
 40
0.0
 40
0.0
 40
0.0
 40
1.0
 40
1.0
 40
1.0
 40
1.0
 10
184.0416
 20
149.743
 30
0.0
 10
184.0416
 20
149.743
 30
0.0
 10
303.4427
 20
149.743
 30
0.0
 10
303.4427
 20
149.743
 30
0.0
  0
SPLINE
  5
1AC
330
1F
100
AcDbEntity
  8
DEFPOINTS
100
AcDbSpline
210
0.0
220
0.0
230
1.0
 70
    11
 71
     3
 72
    16
 73
    12
 74
     0
 42
0.0000000001
 43
0.0000000001
 40
0.0
 40
0.0
 40
0.0
 40
0.0
 40
0.3333333333333333
 40
0.3333333333333333
 40
0.3333333333333333
 40
0.3333333333333333
 40
0.6666666666666666
 40
0.6666666666666666
 40
0.6666666666666666
 40
0.6666666666666666
 40
1.0
 40
1.0
 40
1.0
 40
1.0
 10
184.0416
 20
150.4627
 30
0.0
 10
184.0416
 20
150.4627
 30
0.0
 10
184.0416
 20
149.0022
 30
0.0
 10
184.0416
 20
149.0022
 30
0.0
 10
184.0416
 20
149.0022
 30
0.0
 10
184.0416
 20
149.0022
 30
0.0
 10
179.7024
 20
149.743
 30
0.0
 10
179.7024
 20
149.743
 30
0.0
 10
179.7024
 20
149.743
 30
0.0
 10
179.7024
 20
149.743
 30
0.0
 10
184.0416
 20
150.4627
 30
0.0
 10
184.0416
 20
150.4627
 30
0.0
  0
SPLINE
  5
1AD
330
1F
100
AcDbEntity
  8
DEFPOINTS
100
AcDbSpline
210
0.0
220
0.0
230
1.0
 70
    11
 71
     3
 72
    16
 73
    12
 74
     0
 42
0.0000000001
 43
0.0000000001
 40
0.0
 40
0.0
 40
0.0
 40
0.0
 40
0.3333333333333333
 40
0.3333333333333333
 40
0.3333333333333333
 40
0.3333333333333333
 40
0.6666666666666666
 40
0.6666666666666666
 40
0.6666666666666666
 40
0.6666666666666666
 40
1.0
 40
1.0
 40
1.0
 40
1.0
 10
303.4427
 20
150.4627
 30
0.0
 10
303.4427
 20
150.4627
 30
0.0
 10
303.4427
 20
149.0022
 30
0.0
 10
303.4427
 20
149.0022
 30
0.0
 10
303.4427
 20
149.0022
 30
0.0
 10
303.4427
 20
149.0022
 30
0.0
 10
307.8031
 20
149.743
 30
0.0
 10
307.8031
 20
149.743
 30
0.0
 10
307.8031
 20
149.743
 30
0.0
 10
307.8031
 20
149.743
 30
0.0
 10
303.4427
 20
150.4627
 30
0.0
 10
303.4427
 20
150.4627
 30
0.0
  0
SPLINE
  5
1AE
330
1F
100
AcDbEntity
  8
DEFPOINTS
370
    25
100
AcDbSpline
210
0.0
220
0.0
230
1.0
 70
     8
 71
     3
 72
    12
 73
     8
 74
     0
 42
0.0000000001
 43
0.0000000001
 40
0.0
 40
0.0
 40
0.0
 40
0.0
 40
0.5
 40
0.5
 40
0.5
 40
0.5
 40
1.0
 40
1.0
 40
1.0
 40
1.0
 10
238.2494
 20
154.2515
 30
0.0
 10
238.2494
 20
154.2515
 30
0.0
 10
241.1492
 20
154.2515
 30
0.0
 10
241.1492
 20
154.2515
 30
0.0
 10
241.1492
 20
154.2515
 30
0.0
 10
241.1492
 20
154.2515
 30
0.0
 10
239.0749
 20
149.9123
 30
0.0
 10
239.0749
 20
149.9123
 30
0.0
  0
SPLINE
  5
1AF
330
1F
100
AcDbEntity
  8
DEFPOINTS
370
    25
100
AcDbSpline
210
0.0
220
0.0
230
1.0
 70
     8
 71
     3
 72
    60
 73
    56
 74
     0
 42
0.0000000001
 43
0.0000000001
 40
0.0
 40
0.0
 40
0.0
 40
0.0
 40
0.0714285714285714
 40
0.0714285714285714
 40
0.0714285714285714
 40
0.0714285714285714
 40
0.1428571428571428
 40
0.1428571428571428
 40
0.1428571428571428
 40
0.1428571428571428
 40
0.2142857142857143
 40
0.2142857142857143
 40
0.2142857142857143
 40
0.2142857142857143
 40
0.2857142857142857
 40
0.2857142857142857
 40
0.2857142857142857
 40
0.2857142857142857
 40
0.3571428571428571
 40
0.3571428571428571
 40
0.3571428571428571
 40
0.3571428571428571
 40
0.4285714285714285
 40
0.4285714285714285
 40
0.4285714285714285
 40
0.4285714285714285
 40
0.4999999999999999
 40
0.4999999999999999
 40
0.4999999999999999
 40
0.4999999999999999
 40
0.5714285714285713
 40
0.5714285714285713
 40
0.5714285714285713
 40
0.5714285714285713
 40
0.6428571428571427
 40
0.6428571428571427
 40
0.6428571428571427
 40
0.6428571428571427
 40
0.7142857142857141
 40
0.7142857142857141
 40
0.7142857142857141
 40
0.7142857142857141
 40
0.7857142857142855
 40
0.7857142857142855
 40
0.7857142857142855
 40
0.7857142857142855
 40
0.8571428571428569
 40
0.8571428571428569
 40
0.8571428571428569
 40
0.8571428571428569
 40
0.9285714285714283
 40
0.9285714285714283
 40
0.9285714285714283
 40
0.9285714285714283
 40
1.0
 40
1.0
 40
1.0
 40
1.0
 10
242.8214
 20
154.2515
 30
0.0
 10
242.8214
 20
154.2515
 30
0.0
 10
245.0862
 20
154.2515
 30
0.0
 10
245.0862
 20
154.2515
 30
0.0
 10
245.0862
 20
154.2515
 30
0.0
 10
245.0862
 20
154.2515
 30
0.0
 10
243.8586
 20
152.6005
 30
0.0
 10
243.8586
 20
152.6005
 30
0.0
 10
243.8586
 20
152.6005
 30
0.0
 10
243.8586
 20
152.6005
 30
0.0
 10
244.4724
 20
152.6005
 30
0.0
 10
244.4724
 20
152.6005
 30
0.0
 10
244.4724
 20
152.6005
 30
0.0
 10
244.4724
 20
152.6005
 30
0.0
 10
244.8957
 20
152.3888
 30
0.0
 10
244.8957
 20
152.3888
 30
0.0
 10
244.8957
 20
152.3888
 30
0.0
 10
244.8957
 20
152.3888
 30
0.0
 10
245.0862
 20
152.1983
 30
0.0
 10
245.0862
 20
152.1983
 30
0.0
 10
245.0862
 20
152.1983
 30
0.0
 10
245.0862
 20
152.1983
 30
0.0
 10
245.2979
 20
151.5633
 30
0.0
 10
245.2979
 20
151.5633
 30
0.0
 10
245.2979
 20
151.5633
 30
0.0
 10
245.2979
 20
151.5633
 30
0.0
 10
245.2979
 20
151.1612
 30
0.0
 10
245.2979
 20
151.1612
 30
0.0
 10
245.2979
 20
151.1612
 30
0.0
 10
245.2979
 20
151.1612
 30
0.0
 10
245.0862
 20
150.5262
 30
0.0
 10
245.0862
 20
150.5262
 30
0.0
 10
245.0862
 20
150.5262
 30
0.0
 10
245.0862
 20
150.5262
 30
0.0
 10
244.6841
 20
150.124
 30
0.0
 10
244.6841
 20
150.124
 30
0.0
 10
244.6841
 20
150.124
 30
0.0
 10
244.6841
 20
150.124
 30
0.0
 10
244.0491
 20
149.9123
 30
0.0
 10
244.0491
 20
149.9123
 30
0.0
 10
244.0491
 20
149.9123
 30
0.0
 10
244.0491
 20
149.9123
 30
0.0
 10
243.4352
 20
149.9123
 30
0.0
 10
243.4352
 20
149.9123
 30
0.0
 10
243.4352
 20
149.9123
 30
0.0
 10
243.4352
 20
149.9123
 30
0.0
 10
242.8214
 20
150.124
 30
0.0
 10
242.8214
 20
150.124
 30
0.0
 10
242.8214
 20
150.124
 30
0.0
 10
242.8214
 20
150.124
 30
0.0
 10
242.6097
 20
150.3145
 30
0.0
 10
242.6097
 20
150.3145
 30
0.0
 10
242.6097
 20
150.3145
 30
0.0
 10
242.6097
 20
150.3145
 30
0.0
 10
242.3981
 20
150.7378
 30
0.0
 10
242.3981
 20
150.7378
 30
0.0
  0
SPLINE
  5
1B0
330
1F
100
AcDbEntity
  8
DEFPOINTS
370
    25
100
AcDbSpline
210
0.0
220
0.0
230
1.0
 70
     8
 71
     3
 72
    92
 73
    88
 74
     0
 42
0.0000000001
 43
0.0000000001
 40
0.0
 40
0.0
 40
0.0
 40
0.0
 40
0.0454545454545455
 40
0.0454545454545455
 40
0.0454545454545455
 40
0.0454545454545455
 40
0.0909090909090909
 40
0.0909090909090909
 40
0.0909090909090909
 40
0.0909090909090909
 40
0.1363636363636364
 40
0.1363636363636364
 40
0.1363636363636364
 40
0.1363636363636364
 40
0.1818181818181818
 40
0.1818181818181818
 40
0.1818181818181818
 40
0.1818181818181818
 40
0.2272727272727273
 40
0.2272727272727273
 40
0.2272727272727273
 40
0.2272727272727273
 40
0.2727272727272728
 40
0.2727272727272728
 40
0.2727272727272728
 40
0.2727272727272728
 40
0.3181818181818182
 40
0.3181818181818182
 40
0.3181818181818182
 40
0.3181818181818182
 40
0.3636363636363637
 40
0.3636363636363637
 40
0.3636363636363637
 40
0.3636363636363637
 40
0.4090909090909092
 40
0.4090909090909092
 40
0.4090909090909092
 40
0.4090909090909092
 40
0.4545454545454546
 40
0.4545454545454546
 40
0.4545454545454546
 40
0.4545454545454546
 40
0.5000000000000001
 40
0.5000000000000001
 40
0.5000000000000001
 40
0.5000000000000001
 40
0.5454545454545455
 40
0.5454545454545455
 40
0.5454545454545455
 40
0.5454545454545455
 40
0.5909090909090909
 40
0.5909090909090909
 40
0.5909090909090909
 40
0.5909090909090909
 40
0.6363636363636364
 40
0.6363636363636364
 40
0.6363636363636364
 40
0.6363636363636364
 40
0.6818181818181818
 40
0.6818181818181818
 40
0.6818181818181818
 40
0.6818181818181818
 40
0.7272727272727272
 40
0.7272727272727272
 40
0.7272727272727272
 40
0.7272727272727272
 40
0.7727272727272726
 40
0.7727272727272726
 40
0.7727272727272726
 40
0.7727272727272726
 40
0.818181818181818
 40
0.818181818181818
 40
0.818181818181818
 40
0.818181818181818
 40
0.8636363636363634
 40
0.8636363636363634
 40
0.8636363636363634
 40
0.8636363636363634
 40
0.9090909090909088
 40
0.9090909090909088
 40
0.9090909090909088
 40
0.9090909090909088
 40
0.9545454545454543
 40
0.9545454545454543
 40
0.9545454545454543
 40
0.9545454545454543
 40
1.0
 40
1.0
 40
1.0
 40
1.0
 10
249.0232
 20
153.6377
 30
0.0
 10
249.0232
 20
153.6377
 30
0.0
 10
248.8327
 20
154.061
 30
0.0
 10
248.8327
 20
154.061
 30
0.0
 10
248.8327
 20
154.061
 30
0.0
 10
248.8327
 20
154.061
 30
0.0
 10
248.1977
 20
154.2515
 30
0.0
 10
248.1977
 20
154.2515
 30
0.0
 10
248.1977
 20
154.2515
 30
0.0
 10
248.1977
 20
154.2515
 30
0.0
 10
247.7956
 20
154.2515
 30
0.0
 10
247.7956
 20
154.2515
 30
0.0
 10
247.7956
 20
154.2515
 30
0.0
 10
247.7956
 20
154.2515
 30
0.0
 10
247.1606
 20
154.061
 30
0.0
 10
247.1606
 20
154.061
 30
0.0
 10
247.1606
 20
154.061
 30
0.0
 10
247.1606
 20
154.061
 30
0.0
 10
246.7584
 20
153.426
 30
0.0
 10
246.7584
 20
153.426
 30
0.0
 10
246.7584
 20
153.426
 30
0.0
 10
246.7584
 20
153.426
 30
0.0
 10
246.5467
 20
152.3888
 30
0.0
 10
246.5467
 20
152.3888
 30
0.0
 10
246.5467
 20
152.3888
 30
0.0
 10
246.5467
 20
152.3888
 30
0.0
 10
246.5467
 20
151.3517
 30
0.0
 10
246.5467
 20
151.3517
 30
0.0
 10
246.5467
 20
151.3517
 30
0.0
 10
246.5467
 20
151.3517
 30
0.0
 10
246.7584
 20
150.5262
 30
0.0
 10
246.7584
 20
150.5262
 30
0.0
 10
246.7584
 20
150.5262
 30
0.0
 10
246.7584
 20
150.5262
 30
0.0
 10
247.1606
 20
150.124
 30
0.0
 10
247.1606
 20
150.124
 30
0.0
 10
247.1606
 20
150.124
 30
0.0
 10
247.1606
 20
150.124
 30
0.0
 10
247.7956
 20
149.9123
 30
0.0
 10
247.7956
 20
149.9123
 30
0.0
 10
247.7956
 20
149.9123
 30
0.0
 10
247.7956
 20
149.9123
 30
0.0
 10
247.9861
 20
149.9123
 30
0.0
 10
247.9861
 20
149.9123
 30
0.0
 10
247.9861
 20
149.9123
 30
0.0
 10
247.9861
 20
149.9123
 30
0.0
 10
248.6211
 20
150.124
 30
0.0
 10
248.6211
 20
150.124
 30
0.0
 10
248.6211
 20
150.124
 30
0.0
 10
248.6211
 20
150.124
 30
0.0
 10
249.0232
 20
150.5262
 30
0.0
 10
249.0232
 20
150.5262
 30
0.0
 10
249.0232
 20
150.5262
 30
0.0
 10
249.0232
 20
150.5262
 30
0.0
 10
249.2349
 20
151.1612
 30
0.0
 10
249.2349
 20
151.1612
 30
0.0
 10
249.2349
 20
151.1612
 30
0.0
 10
249.2349
 20
151.1612
 30
0.0
 10
249.2349
 20
151.3517
 30
0.0
 10
249.2349
 20
151.3517
 30
0.0
 10
249.2349
 20
151.3517
 30
0.0
 10
249.2349
 20
151.3517
 30
0.0
 10
249.0232
 20
151.9867
 30
0.0
 10
249.0232
 20
151.9867
 30
0.0
 10
249.0232
 20
151.9867
 30
0.0
 10
249.0232
 20
151.9867
 30
0.0
 10
248.6211
 20
152.3888
 30
0.0
 10
248.6211
 20
152.3888
 30
0.0
 10
248.6211
 20
152.3888
 30
0.0
 10
248.6211
 20
152.3888
 30
0.0
 10
247.9861
 20
152.6005
 30
0.0
 10
247.9861
 20
152.6005
 30
0.0
 10
247.9861
 20
152.6005
 30
0.0
 10
247.9861
 20
152.6005
 30
0.0
 10
247.7956
 20
152.6005
 30
0.0
 10
247.7956
 20
152.6005
 30
0.0
 10
247.7956
 20
152.6005
 30
0.0
 10
247.7956
 20
152.6005
 30
0.0
 10
247.1606
 20
152.3888
 30
0.0
 10
247.1606
 20
152.3888
 30
0.0
 10
247.1606
 20
152.3888
 30
0.0
 10
247.1606
 20
152.3888
 30
0.0
 10
246.7584
 20
151.9867
 30
0.0
 10
246.7584
 20
151.9867
 30
0.0
 10
246.7584
 20
151.9867
 30
0.0
 10
246.7584
 20
151.9867
 30
0.0
 10
246.5467
 20
151.3517
 30
0.0
 10
246.5467
 20
151.3517
 30
0.0
  0
SPLINE
  5
1B1
330
1F
100
AcDbEntity
  8
DEFPOINTS
370
    25
100
AcDbSpline
210
0.0
220
0.0
230
1.0
 70
    24
 71
     3
 72
     8
 73
     4
 74
     0
 42
0.0000000001
 43
0.0000000001
 40
0.0
 40
0.0
 40
0.0
 40
0.0
 40
1.0
 40
1.0
 40
1.0
 40
1.0
 10
308.3111
 20
159.6278
 30
0.0
 10
308.3111
 20
159.6278
 30
0.0
 10
308.3111
 20
141.7843
 30
0.0
 10
308.3111
 20
141.7843
 30
0.0
  0
SPLINE
  5
1B2
330
1F
100
AcDbEntity
  8
DEFPOINTS
370
    25
100
AcDbSpline
210
0.0
220
0.0
230
1.0
 70
    24
 71
     3
 72
     8
 73
     4
 74
     0
 42
0.0000000001
 43
0.0000000001
 40
0.0
 40
0.0
 40
0.0
 40
0.0
 40
1.0
 40
1.0
 40
1.0
 40
1.0
 10
179.1732
 20
159.6278
 30
0.0
 10
179.1732
 20
159.6278
 30
0.0
 10
179.1732
 20
141.7843
 30
0.0
 10
179.1732
 20
141.7843
 30
0.0
  0
SPLINE
  5
1B3
330
1F
100
AcDbEntity
  8
DEFPOINTS
370
    25
100
AcDbSpline
210
0.0
220
0.0
230
1.0
 70
    24
 71
     3
 72
     8
 73
     4
 74
     0
 42
0.0000000001
 43
0.0000000001
 40
0.0
 40
0.0
 40
0.0
 40
0.0
 40
1.0
 40
1.0
 40
1.0
 40
1.0
 10
303.9719
 20
143.9645
 30
0.0
 10
303.9719
 20
143.9645
 30
0.0
 10
183.5336
 20
143.9645
 30
0.0
 10
183.5336
 20
143.9645
 30
0.0
  0
SPLINE
  5
1B4
330
1F
100
AcDbEntity
  8
DEFPOINTS
100
AcDbSpline
210
0.0
220
0.0
230
1.0
 70
    11
 71
     3
 72
    16
 73
    12
 74
     0
 42
0.0000000001
 43
0.0000000001
 40
0.0
 40
0.0
 40
0.0
 40
0.0
 40
0.3333333333333333
 40
0.3333333333333333
 40
0.3333333333333333
 40
0.3333333333333333
 40
0.6666666666666666
 40
0.6666666666666666
 40
0.6666666666666666
 40
0.6666666666666666
 40
1.0
 40
1.0
 40
1.0
 40
1.0
 10
303.9719
 20
144.6842
 30
0.0
 10
303.9719
 20
144.6842
 30
0.0
 10
303.9719
 20
143.2448
 30
0.0
 10
303.9719
 20
143.2448
 30
0.0
 10
303.9719
 20
143.2448
 30
0.0
 10
303.9719
 20
143.2448
 30
0.0
 10
308.3111
 20
143.9645
 30
0.0
 10
308.3111
 20
143.9645
 30
0.0
 10
308.3111
 20
143.9645
 30
0.0
 10
308.3111
 20
143.9645
 30
0.0
 10
303.9719
 20
144.6842
 30
0.0
 10
303.9719
 20
144.6842
 30
0.0
  0
SPLINE
  5
1B5
330
1F
100
AcDbEntity
  8
DEFPOINTS
100
AcDbSpline
210
0.0
220
0.0
230
1.0
 70
    11
 71
     3
 72
    16
 73
    12
 74
     0
 42
0.0000000001
 43
0.0000000001
 40
0.0
 40
0.0
 40
0.0
 40
0.0
 40
0.3333333333333333
 40
0.3333333333333333
 40
0.3333333333333333
 40
0.3333333333333333
 40
0.6666666666666666
 40
0.6666666666666666
 40
0.6666666666666666
 40
0.6666666666666666
 40
1.0
 40
1.0
 40
1.0
 40
1.0
 10
183.5336
 20
144.6842
 30
0.0
 10
183.5336
 20
144.6842
 30
0.0
 10
183.5336
 20
143.2448
 30
0.0
 10
183.5336
 20
143.2448
 30
0.0
 10
183.5336
 20
143.2448
 30
0.0
 10
183.5336
 20
143.2448
 30
0.0
 10
179.1732
 20
143.9645
 30
0.0
 10
179.1732
 20
143.9645
 30
0.0
 10
179.1732
 20
143.9645
 30
0.0
 10
179.1732
 20
143.9645
 30
0.0
 10
183.5336
 20
144.6842
 30
0.0
 10
183.5336
 20
144.6842
 30
0.0
  0
SPLINE
  5
1B6
330
1F
100
AcDbEntity
  8
DEFPOINTS
370
    25
100
AcDbSpline
210
0.0
220
0.0
230
1.0
 70
     8
 71
     3
 72
    12
 73
     8
 74
     0
 42
0.0000000001
 43
0.0000000001
 40
0.0
 40
0.0
 40
0.0
 40
0.0
 40
0.5
 40
0.5
 40
0.5
 40
0.5
 40
1.0
 40
1.0
 40
1.0
 40
1.0
 10
238.1436
 20
148.4942
 30
0.0
 10
238.1436
 20
148.4942
 30
0.0
 10
241.0434
 20
148.4942
 30
0.0
 10
241.0434
 20
148.4942
 30
0.0
 10
241.0434
 20
148.4942
 30
0.0
 10
241.0434
 20
148.4942
 30
0.0
 10
238.9902
 20
144.1338
 30
0.0
 10
238.9902
 20
144.1338
 30
0.0
  0
SPLINE
  5
1B7
330
1F
100
AcDbEntity
  8
DEFPOINTS
370
    25
100
AcDbSpline
210
0.0
220
0.0
230
1.0
 70
     8
 71
     3
 72
    12
 73
     8
 74
     0
 42
0.0000000001
 43
0.0000000001
 40
0.0
 40
0.0
 40
0.0
 40
0.0
 40
0.5
 40
0.5
 40
0.5
 40
0.5
 40
1.0
 40
1.0
 40
1.0
 40
1.0
 10
244.3666
 20
148.4942
 30
0.0
 10
244.3666
 20
148.4942
 30
0.0
 10
242.2922
 20
145.5943
 30
0.0
 10
242.2922
 20
145.5943
 30
0.0
 10
242.2922
 20
145.5943
 30
0.0
 10
242.2922
 20
145.5943
 30
0.0
 10
245.4037
 20
145.5943
 30
0.0
 10
245.4037
 20
145.5943
 30
0.0
  0
SPLINE
  5
1B8
330
1F
100
AcDbEntity
  8
DEFPOINTS
370
    25
100
AcDbSpline
210
0.0
220
0.0
230
1.0
 70
    24
 71
     3
 72
     8
 73
     4
 74
     0
 42
0.0000000001
 43
0.0000000001
 40
0.0
 40
0.0
 40
0.0
 40
0.0
 40
1.0
 40
1.0
 40
1.0
 40
1.0
 10
244.3666
 20
148.4942
 30
0.0
 10
244.3666
 20
148.4942
 30
0.0
 10
244.3666
 20
144.1338
 30
0.0
 10
244.3666
 20
144.1338
 30
0.0
  0
SPLINE
  5
1B9
330
1F
100
AcDbEntity
  8
DEFPOINTS
370
    25
100
AcDbSpline
210
0.0
220
0.0
230
1.0
 70
     8
 71
     3
 72
    56
 73
    52
 74
     0
 42
0.0000000001
 43
0.0000000001
 40
0.0
 40
0.0
 40
0.0
 40
0.0
 40
0.0769230769230769
 40
0.0769230769230769
 40
0.0769230769230769
 40
0.0769230769230769
 40
0.1538461538461539
 40
0.1538461538461539
 40
0.1538461538461539
 40
0.1538461538461539
 40
0.2307692307692308
 40
0.2307692307692308
 40
0.2307692307692308
 40
0.2307692307692308
 40
0.3076923076923077
 40
0.3076923076923077
 40
0.3076923076923077
 40
0.3076923076923077
 40
0.3846153846153846
 40
0.3846153846153846
 40
0.3846153846153846
 40
0.3846153846153846
 40
0.4615384615384616
 40
0.4615384615384616
 40
0.4615384615384616
 40
0.4615384615384616
 40
0.5384615384615385
 40
0.5384615384615385
 40
0.5384615384615385
 40
0.5384615384615385
 40
0.6153846153846154
 40
0.6153846153846154
 40
0.6153846153846154
 40
0.6153846153846154
 40
0.6923076923076923
 40
0.6923076923076923
 40
0.6923076923076923
 40
0.6923076923076923
 40
0.7692307692307692
 40
0.7692307692307692
 40
0.7692307692307692
 40
0.7692307692307692
 40
0.846153846153846
 40
0.846153846153846
 40
0.846153846153846
 40
0.846153846153846
 40
0.9230769230769229
 40
0.9230769230769229
 40
0.9230769230769229
 40
0.9230769230769229
 40
1.0
 40
1.0
 40
1.0
 40
1.0
 10
246.6526
 20
147.457
 30
0.0
 10
246.6526
 20
147.457
 30
0.0
 10
246.6526
 20
147.6687
 30
0.0
 10
246.6526
 20
147.6687
 30
0.0
 10
246.6526
 20
147.6687
 30
0.0
 10
246.6526
 20
147.6687
 30
0.0
 10
246.8642
 20
148.0708
 30
0.0
 10
246.8642
 20
148.0708
 30
0.0
 10
246.8642
 20
148.0708
 30
0.0
 10
246.8642
 20
148.0708
 30
0.0
 10
247.0547
 20
148.2825
 30
0.0
 10
247.0547
 20
148.2825
 30
0.0
 10
247.0547
 20
148.2825
 30
0.0
 10
247.0547
 20
148.2825
 30
0.0
 10
247.4781
 20
148.4942
 30
0.0
 10
247.4781
 20
148.4942
 30
0.0
 10
247.4781
 20
148.4942
 30
0.0
 10
247.4781
 20
148.4942
 30
0.0
 10
248.3036
 20
148.4942
 30
0.0
 10
248.3036
 20
148.4942
 30
0.0
 10
248.3036
 20
148.4942
 30
0.0
 10
248.3036
 20
148.4942
 30
0.0
 10
248.7269
 20
148.2825
 30
0.0
 10
248.7269
 20
148.2825
 30
0.0
 10
248.7269
 20
148.2825
 30
0.0
 10
248.7269
 20
148.2825
 30
0.0
 10
248.9174
 20
148.0708
 30
0.0
 10
248.9174
 20
148.0708
 30
0.0
 10
248.9174
 20
148.0708
 30
0.0
 10
248.9174
 20
148.0708
 30
0.0
 10
249.1291
 20
147.6687
 30
0.0
 10
249.1291
 20
147.6687
 30
0.0
 10
249.1291
 20
147.6687
 30
0.0
 10
249.1291
 20
147.6687
 30
0.0
 10
249.1291
 20
147.2453
 30
0.0
 10
249.1291
 20
147.2453
 30
0.0
 10
249.1291
 20
147.2453
 30
0.0
 10
249.1291
 20
147.2453
 30
0.0
 10
248.9174
 20
146.8432
 30
0.0
 10
248.9174
 20
146.8432
 30
0.0
 10
248.9174
 20
146.8432
 30
0.0
 10
248.9174
 20
146.8432
 30
0.0
 10
248.5152
 20
146.2082
 30
0.0
 10
248.5152
 20
146.2082
 30
0.0
 10
248.5152
 20
146.2082
 30
0.0
 10
248.5152
 20
146.2082
 30
0.0
 10
246.4409
 20
144.1338
 30
0.0
 10
246.4409
 20
144.1338
 30
0.0
 10
246.4409
 20
144.1338
 30
0.0
 10
246.4409
 20
144.1338
 30
0.0
 10
249.3407
 20
144.1338
 30
0.0
 10
249.3407
 20
144.1338
 30
0.0
  0
SPLINE
  5
1BA
330
1F
100
AcDbEntity
  8
DEFPOINTS
370
    25
100
AcDbSpline
210
0.0
220
0.0
230
1.0
 70
    24
 71
     3
 72
     8
 73
     4
 74
     0
 42
0.0000000001
 43
0.0000000001
 40
0.0
 40
0.0
 40
0.0
 40
0.0
 40
1.0
 40
1.0
 40
1.0
 40
1.0
 10
178.6441
 20
159.6278
 30
0.0
 10
178.6441
 20
159.6278
 30
0.0
 10
178.6441
 20
136.4927
 30
0.0
 10
178.6441
 20
136.4927
 30
0.0
  0
SPLINE
  5
1BB
330
1F
100
AcDbEntity
  8
DEFPOINTS
370
    25
100
AcDbSpline
210
0.0
220
0.0
230
1.0
 70
    24
 71
     3
 72
     8
 73
     4
 74
     0
 42
0.0000000001
 43
0.0000000001
 40
0.0
 40
0.0
 40
0.0
 40
0.0
 40
1.0
 40
1.0
 40
1.0
 40
1.0
 10
308.8402
 20
159.6278
 30
0.0
 10
308.8402
 20
159.6278
 30
0.0
 10
308.8402
 20
136.4927
 30
0.0
 10
308.8402
 20
136.4927
 30
0.0
  0
SPLINE
  5
1BC
330
1F
100
AcDbEntity
  8
DEFPOINTS
370
    25
100
AcDbSpline
210
0.0
220
0.0
230
1.0
 70
    24
 71
     3
 72
     8
 73
     4
 74
     0
 42
0.0000000001
 43
0.0000000001
 40
0.0
 40
0.0
 40
0.0
 40
0.0
 40
1.0
 40
1.0
 40
1.0
 40
1.0
 10
183.0044
 20
138.6517
 30
0.0
 10
183.0044
 20
138.6517
 30
0.0
 10
304.4799
 20
138.6517
 30
0.0
 10
304.4799
 20
138.6517
 30
0.0
  0
SPLINE
  5
1BD
330
1F
100
AcDbEntity
  8
DEFPOINTS
100
AcDbSpline
210
0.0
220
0.0
230
1.0
 70
    11
 71
     3
 72
    16
 73
    12
 74
     0
 42
0.0000000001
 43
0.0000000001
 40
0.0
 40
0.0
 40
0.0
 40
0.0
 40
0.3333333333333333
 40
0.3333333333333333
 40
0.3333333333333333
 40
0.3333333333333333
 40
0.6666666666666666
 40
0.6666666666666666
 40
0.6666666666666666
 40
0.6666666666666666
 40
1.0
 40
1.0
 40
1.0
 40
1.0
 10
183.0044
 20
139.3925
 30
0.0
 10
183.0044
 20
139.3925
 30
0.0
 10
183.0044
 20
137.932
 30
0.0
 10
183.0044
 20
137.932
 30
0.0
 10
183.0044
 20
137.932
 30
0.0
 10
183.0044
 20
137.932
 30
0.0
 10
178.6441
 20
138.6517
 30
0.0
 10
178.6441
 20
138.6517
 30
0.0
 10
178.6441
 20
138.6517
 30
0.0
 10
178.6441
 20
138.6517
 30
0.0
 10
183.0044
 20
139.3925
 30
0.0
 10
183.0044
 20
139.3925
 30
0.0
  0
SPLINE
  5
1BE
330
1F
100
AcDbEntity
  8
DEFPOINTS
100
AcDbSpline
210
0.0
220
0.0
230
1.0
 70
    11
 71
     3
 72
    16
 73
    12
 74
     0
 42
0.0000000001
 43
0.0000000001
 40
0.0
 40
0.0
 40
0.0
 40
0.0
 40
0.3333333333333333
 40
0.3333333333333333
 40
0.3333333333333333
 40
0.3333333333333333
 40
0.6666666666666666
 40
0.6666666666666666
 40
0.6666666666666666
 40
0.6666666666666666
 40
1.0
 40
1.0
 40
1.0
 40
1.0
 10
304.4799
 20
139.3925
 30
0.0
 10
304.4799
 20
139.3925
 30
0.0
 10
304.4799
 20
137.932
 30
0.0
 10
304.4799
 20
137.932
 30
0.0
 10
304.4799
 20
137.932
 30
0.0
 10
304.4799
 20
137.932
 30
0.0
 10
308.8402
 20
138.6517
 30
0.0
 10
308.8402
 20
138.6517
 30
0.0
 10
308.8402
 20
138.6517
 30
0.0
 10
308.8402
 20
138.6517
 30
0.0
 10
304.4799
 20
139.3925
 30
0.0
 10
304.4799
 20
139.3925
 30
0.0
  0
SPLINE
  5
1BF
330
1F
100
AcDbEntity
  8
DEFPOINTS
370
    25
100
AcDbSpline
210
0.0
220
0.0
230
1.0
 70
     8
 71
     3
 72
    12
 73
     8
 74
     0
 42
0.0000000001
 43
0.0000000001
 40
0.0
 40
0.0
 40
0.0
 40
0.0
 40
0.5
 40
0.5
 40
0.5
 40
0.5
 40
1.0
 40
1.0
 40
1.0
 40
1.0
 10
238.1436
 20
143.1813
 30
0.0
 10
238.1436
 20
143.1813
 30
0.0
 10
241.0434
 20
143.1813
 30
0.0
 10
241.0434
 20
143.1813
 30
0.0
 10
241.0434
 20
143.1813
 30
0.0
 10
241.0434
 20
143.1813
 30
0.0
 10
238.9902
 20
138.8422
 30
0.0
 10
238.9902
 20
138.8422
 30
0.0
  0
SPLINE
  5
1C0
330
1F
100
AcDbEntity
  8
DEFPOINTS
370
    25
100
AcDbSpline
210
0.0
220
0.0
230
1.0
 70
     8
 71
     3
 72
    12
 73
     8
 74
     0
 42
0.0000000001
 43
0.0000000001
 40
0.0
 40
0.0
 40
0.0
 40
0.0
 40
0.5
 40
0.5
 40
0.5
 40
0.5
 40
1.0
 40
1.0
 40
1.0
 40
1.0
 10
244.3666
 20
143.1813
 30
0.0
 10
244.3666
 20
143.1813
 30
0.0
 10
242.2922
 20
140.2815
 30
0.0
 10
242.2922
 20
140.2815
 30
0.0
 10
242.2922
 20
140.2815
 30
0.0
 10
242.2922
 20
140.2815
 30
0.0
 10
245.4037
 20
140.2815
 30
0.0
 10
245.4037
 20
140.2815
 30
0.0
  0
SPLINE
  5
1C1
330
1F
100
AcDbEntity
  8
DEFPOINTS
370
    25
100
AcDbSpline
210
0.0
220
0.0
230
1.0
 70
    24
 71
     3
 72
     8
 73
     4
 74
     0
 42
0.0000000001
 43
0.0000000001
 40
0.0
 40
0.0
 40
0.0
 40
0.0
 40
1.0
 40
1.0
 40
1.0
 40
1.0
 10
244.3666
 20
143.1813
 30
0.0
 10
244.3666
 20
143.1813
 30
0.0
 10
244.3666
 20
138.8422
 30
0.0
 10
244.3666
 20
138.8422
 30
0.0
  0
SPLINE
  5
1C2
330
1F
100
AcDbEntity
  8
DEFPOINTS
370
    25
100
AcDbSpline
210
0.0
220
0.0
230
1.0
 70
    11
 71
     3
 72
    76
 73
    72
 74
     0
 42
0.0000000001
 43
0.0000000001
 40
0.0
 40
0.0
 40
0.0
 40
0.0
 40
0.0555555555555556
 40
0.0555555555555556
 40
0.0555555555555556
 40
0.0555555555555556
 40
0.1111111111111111
 40
0.1111111111111111
 40
0.1111111111111111
 40
0.1111111111111111
 40
0.1666666666666667
 40
0.1666666666666667
 40
0.1666666666666667
 40
0.1666666666666667
 40
0.2222222222222222
 40
0.2222222222222222
 40
0.2222222222222222
 40
0.2222222222222222
 40
0.2777777777777778
 40
0.2777777777777778
 40
0.2777777777777778
 40
0.2777777777777778
 40
0.3333333333333334
 40
0.3333333333333334
 40
0.3333333333333334
 40
0.3333333333333334
 40
0.388888888888889
 40
0.388888888888889
 40
0.388888888888889
 40
0.388888888888889
 40
0.4444444444444445
 40
0.4444444444444445
 40
0.4444444444444445
 40
0.4444444444444445
 40
0.5000000000000001
 40
0.5000000000000001
 40
0.5000000000000001
 40
0.5000000000000001
 40
0.5555555555555557
 40
0.5555555555555557
 40
0.5555555555555557
 40
0.5555555555555557
 40
0.6111111111111113
 40
0.6111111111111113
 40
0.6111111111111113
 40
0.6111111111111113
 40
0.6666666666666669
 40
0.6666666666666669
 40
0.6666666666666669
 40
0.6666666666666669
 40
0.7222222222222224
 40
0.7222222222222224
 40
0.7222222222222224
 40
0.7222222222222224
 40
0.777777777777778
 40
0.777777777777778
 40
0.777777777777778
 40
0.777777777777778
 40
0.8333333333333336
 40
0.8333333333333336
 40
0.8333333333333336
 40
0.8333333333333336
 40
0.8888888888888892
 40
0.8888888888888892
 40
0.8888888888888892
 40
0.8888888888888892
 40
0.9444444444444448
 40
0.9444444444444448
 40
0.9444444444444448
 40
0.9444444444444448
 40
1.0
 40
1.0
 40
1.0
 40
1.0
 10
247.4781
 20
143.1813
 30
0.0
 10
247.4781
 20
143.1813
 30
0.0
 10
246.8642
 20
142.9697
 30
0.0
 10
246.8642
 20
142.9697
 30
0.0
 10
246.8642
 20
142.9697
 30
0.0
 10
245.9594
 20
141.4065
 30
0.0
 10
247.8037
 20
141.5141
 30
0.0
 10
248.7269
 20
141.107
 30
0.0
 10
248.7269
 20
141.107
 30
0.0
 10
248.7269
 20
141.107
 30
0.0
 10
249.1291
 20
140.7048
 30
0.0
 10
249.1291
 20
140.7048
 30
0.0
 10
249.1291
 20
140.7048
 30
0.0
 10
249.1291
 20
140.7048
 30
0.0
 10
249.3407
 20
140.2815
 30
0.0
 10
249.3407
 20
140.2815
 30
0.0
 10
249.3407
 20
140.2815
 30
0.0
 10
249.3407
 20
140.2815
 30
0.0
 10
249.3407
 20
139.6677
 30
0.0
 10
249.3407
 20
139.6677
 30
0.0
 10
249.3407
 20
139.6677
 30
0.0
 10
249.3407
 20
139.6677
 30
0.0
 10
249.1291
 20
139.2443
 30
0.0
 10
249.1291
 20
139.2443
 30
0.0
 10
249.1291
 20
139.2443
 30
0.0
 10
249.1291
 20
139.2443
 30
0.0
 10
248.9174
 20
139.0327
 30
0.0
 10
248.9174
 20
139.0327
 30
0.0
 10
248.9174
 20
139.0327
 30
0.0
 10
248.9174
 20
139.0327
 30
0.0
 10
248.3036
 20
138.8422
 30
0.0
 10
248.3036
 20
138.8422
 30
0.0
 10
248.3036
 20
138.8422
 30
0.0
 10
248.3036
 20
138.8422
 30
0.0
 10
247.4781
 20
138.8422
 30
0.0
 10
247.4781
 20
138.8422
 30
0.0
 10
247.4781
 20
138.8422
 30
0.0
 10
247.4781
 20
138.8422
 30
0.0
 10
246.8642
 20
139.0327
 30
0.0
 10
246.8642
 20
139.0327
 30
0.0
 10
246.8642
 20
139.0327
 30
0.0
 10
246.8642
 20
139.0327
 30
0.0
 10
246.6526
 20
139.2443
 30
0.0
 10
246.6526
 20
139.2443
 30
0.0
 10
246.6526
 20
139.2443
 30
0.0
 10
246.6526
 20
139.2443
 30
0.0
 10
246.4409
 20
139.6677
 30
0.0
 10
246.4409
 20
139.6677
 30
0.0
 10
246.4409
 20
139.6677
 30
0.0
 10
246.4409
 20
139.6677
 30
0.0
 10
246.4409
 20
140.2815
 30
0.0
 10
246.4409
 20
140.2815
 30
0.0
 10
246.4409
 20
140.2815
 30
0.0
 10
246.4409
 20
140.2815
 30
0.0
 10
246.6526
 20
140.7048
 30
0.0
 10
246.6526
 20
140.7048
 30
0.0
 10
246.6526
 20
140.7048
 30
0.0
 10
246.6526
 20
140.7048
 30
0.0
 10
247.0547
 20
141.107
 30
0.0
 10
247.0547
 20
141.107
 30
0.0
 10
247.0547
 20
141.107
 30
0.0
 10
247.978
 20
141.5141
 30
0.0
 10
249.8223
 20
141.4065
 30
0.0
 10
248.9174
 20
142.9697
 30
0.0
 10
248.9174
 20
142.9697
 30
0.0
 10
248.9174
 20
142.9697
 30
0.0
 10
248.3036
 20
143.1813
 30
0.0
 10
248.3036
 20
143.1813
 30
0.0
 10
248.3036
 20
143.1813
 30
0.0
 10
248.3036
 20
143.1813
 30
0.0
 10
247.4781
 20
143.1813
 30
0.0
 10
247.4781
 20
143.1813
 30
0.0
  0
SPLINE
  5
1C3
330
1F
100
AcDbEntity
  8
DEFPOINTS
370
    25
100
AcDbSpline
210
0.0
220
0.0
230
1.0
 70
    24
 71
     3
 72
     8
 73
     4
 74
     0
 42
0.0000000001
 43
0.0000000001
 40
0.0
 40
0.0
 40
0.0
 40
0.0
 40
1.0
 40
1.0
 40
1.0
 40
1.0
 10
305.0091
 20
238.7912
 30
0.0
 10
305.0091
 20
238.7912
 30
0.0
 10
317.3281
 20
238.7912
 30
0.0
 10
317.3281
 20
238.7912
 30
0.0
  0
SPLINE
  5
1C4
330
1F
100
AcDbEntity
  8
DEFPOINTS
370
    25
100
AcDbSpline
210
0.0
220
0.0
230
1.0
 70
    24
 71
     3
 72
     8
 73
     4
 74
     0
 42
0.0000000001
 43
0.0000000001
 40
0.0
 40
0.0
 40
0.0
 40
0.0
 40
1.0
 40
1.0
 40
1.0
 40
1.0
 10
305.0091
 20
156.4528
 30
0.0
 10
305.0091
 20
156.4528
 30
0.0
 10
317.3281
 20
156.4528
 30
0.0
 10
317.3281
 20
156.4528
 30
0.0
  0
SPLINE
  5
1C5
330
1F
100
AcDbEntity
  8
DEFPOINTS
370
    25
100
AcDbSpline
210
0.0
220
0.0
230
1.0
 70
    24
 71
     3
 72
     8
 73
     4
 74
     0
 42
0.0000000001
 43
0.0000000001
 40
0.0
 40
0.0
 40
0.0
 40
0.0
 40
1.0
 40
1.0
 40
1.0
 40
1.0
 10
315.1479
 20
234.4308
 30
0.0
 10
315.1479
 20
234.4308
 30
0.0
 10
315.1479
 20
160.8132
 30
0.0
 10
315.1479
 20
160.8132
 30
0.0
  0
SPLINE
  5
1C6
330
1F
100
AcDbEntity
  8
DEFPOINTS
100
AcDbSpline
210
0.0
220
0.0
230
1.0
 70
    11
 71
     3
 72
    16
 73
    12
 74
     0
 42
0.0000000001
 43
0.0000000001
 40
0.0
 40
0.0
 40
0.0
 40
0.0
 40
0.3333333333333333
 40
0.3333333333333333
 40
0.3333333333333333
 40
0.3333333333333333
 40
0.6666666666666666
 40
0.6666666666666666
 40
0.6666666666666666
 40
0.6666666666666666
 40
1.0
 40
1.0
 40
1.0
 40
1.0
 10
314.4282
 20
234.4308
 30
0.0
 10
314.4282
 20
234.4308
 30
0.0
 10
315.8676
 20
234.4308
 30
0.0
 10
315.8676
 20
234.4308
 30
0.0
 10
315.8676
 20
234.4308
 30
0.0
 10
315.8676
 20
234.4308
 30
0.0
 10
315.1479
 20
238.7912
 30
0.0
 10
315.1479
 20
238.7912
 30
0.0
 10
315.1479
 20
238.7912
 30
0.0
 10
315.1479
 20
238.7912
 30
0.0
 10
314.4282
 20
234.4308
 30
0.0
 10
314.4282
 20
234.4308
 30
0.0
  0
SPLINE
  5
1C7
330
1F
100
AcDbEntity
  8
DEFPOINTS
100
AcDbSpline
210
0.0
220
0.0
230
1.0
 70
    11
 71
     3
 72
    16
 73
    12
 74
     0
 42
0.0000000001
 43
0.0000000001
 40
0.0
 40
0.0
 40
0.0
 40
0.0
 40
0.3333333333333333
 40
0.3333333333333333
 40
0.3333333333333333
 40
0.3333333333333333
 40
0.6666666666666666
 40
0.6666666666666666
 40
0.6666666666666666
 40
0.6666666666666666
 40
1.0
 40
1.0
 40
1.0
 40
1.0
 10
314.4282
 20
160.8132
 30
0.0
 10
314.4282
 20
160.8132
 30
0.0
 10
315.8676
 20
160.8132
 30
0.0
 10
315.8676
 20
160.8132
 30
0.0
 10
315.8676
 20
160.8132
 30
0.0
 10
315.8676
 20
160.8132
 30
0.0
 10
315.1479
 20
156.4528
 30
0.0
 10
315.1479
 20
156.4528
 30
0.0
 10
315.1479
 20
156.4528
 30
0.0
 10
315.1479
 20
156.4528
 30
0.0
 10
314.4282
 20
160.8132
 30
0.0
 10
314.4282
 20
160.8132
 30
0.0
  0
SPLINE
  5
1C8
330
1F
100
AcDbEntity
  8
DEFPOINTS
370
    25
100
AcDbSpline
210
0.0
220
0.0
230
1.0
 70
     8
 71
     3
 72
    12
 73
     8
 74
     0
 42
0.0000000001
 43
0.0000000001
 40
0.0
 40
0.0
 40
0.0
 40
0.0
 40
0.5
 40
0.5
 40
0.5
 40
0.5
 40
1.0
 40
1.0
 40
1.0
 40
1.0
 10
310.6182
 20
194.1083
 30
0.0
 10
310.6182
 20
194.1083
 30
0.0
 10
313.5181
 20
192.034
 30
0.0
 10
313.5181
 20
192.034
 30
0.0
 10
313.5181
 20
192.034
 30
0.0
 10
313.5181
 20
192.034
 30
0.0
 10
313.5181
 20
195.1455
 30
0.0
 10
313.5181
 20
195.1455
 30
0.0
  0
SPLINE
  5
1C9
330
1F
100
AcDbEntity
  8
DEFPOINTS
370
    25
100
AcDbSpline
210
0.0
220
0.0
230
1.0
 70
    24
 71
     3
 72
     8
 73
     4
 74
     0
 42
0.0000000001
 43
0.0000000001
 40
0.0
 40
0.0
 40
0.0
 40
0.0
 40
1.0
 40
1.0
 40
1.0
 40
1.0
 10
310.6182
 20
194.1083
 30
0.0
 10
310.6182
 20
194.1083
 30
0.0
 10
314.9786
 20
194.1083
 30
0.0
 10
314.9786
 20
194.1083
 30
0.0
  0
SPLINE
  5
1CA
330
1F
100
AcDbEntity
  8
DEFPOINTS
370
    25
100
AcDbSpline
210
0.0
220
0.0
230
1.0
 70
     8
 71
     3
 72
    12
 73
     8
 74
     0
 42
0.0000000001
 43
0.0000000001
 40
0.0
 40
0.0
 40
0.0
 40
0.0
 40
0.5
 40
0.5
 40
0.5
 40
0.5
 40
1.0
 40
1.0
 40
1.0
 40
1.0
 10
310.6182
 20
196.1827
 30
0.0
 10
310.6182
 20
196.1827
 30
0.0
 10
310.6182
 20
199.0825
 30
0.0
 10
310.6182
 20
199.0825
 30
0.0
 10
310.6182
 20
199.0825
 30
0.0
 10
310.6182
 20
199.0825
 30
0.0
 10
314.9786
 20
197.0082
 30
0.0
 10
314.9786
 20
197.0082
 30
0.0
  0
SPLINE
  5
1CB
330
1F
100
AcDbEntity
  8
DEFPOINTS
370
    25
100
AcDbSpline
210
0.0
220
0.0
230
1.0
 70
     8
 71
     3
 72
    60
 73
    56
 74
     0
 42
0.0000000001
 43
0.0000000001
 40
0.0
 40
0.0
 40
0.0
 40
0.0
 40
0.0714285714285714
 40
0.0714285714285714
 40
0.0714285714285714
 40
0.0714285714285714
 40
0.1428571428571428
 40
0.1428571428571428
 40
0.1428571428571428
 40
0.1428571428571428
 40
0.2142857142857143
 40
0.2142857142857143
 40
0.2142857142857143
 40
0.2142857142857143
 40
0.2857142857142857
 40
0.2857142857142857
 40
0.2857142857142857
 40
0.2857142857142857
 40
0.3571428571428571
 40
0.3571428571428571
 40
0.3571428571428571
 40
0.3571428571428571
 40
0.4285714285714285
 40
0.4285714285714285
 40
0.4285714285714285
 40
0.4285714285714285
 40
0.4999999999999999
 40
0.4999999999999999
 40
0.4999999999999999
 40
0.4999999999999999
 40
0.5714285714285713
 40
0.5714285714285713
 40
0.5714285714285713
 40
0.5714285714285713
 40
0.6428571428571427
 40
0.6428571428571427
 40
0.6428571428571427
 40
0.6428571428571427
 40
0.7142857142857141
 40
0.7142857142857141
 40
0.7142857142857141
 40
0.7142857142857141
 40
0.7857142857142855
 40
0.7857142857142855
 40
0.7857142857142855
 40
0.7857142857142855
 40
0.8571428571428569
 40
0.8571428571428569
 40
0.8571428571428569
 40
0.8571428571428569
 40
0.9285714285714283
 40
0.9285714285714283
 40
0.9285714285714283
 40
0.9285714285714283
 40
1.0
 40
1.0
 40
1.0
 40
1.0
 10
310.6182
 20
200.7335
 30
0.0
 10
310.6182
 20
200.7335
 30
0.0
 10
310.6182
 20
203.0195
 30
0.0
 10
310.6182
 20
203.0195
 30
0.0
 10
310.6182
 20
203.0195
 30
0.0
 10
310.6182
 20
203.0195
 30
0.0
 10
312.2904
 20
201.7707
 30
0.0
 10
312.2904
 20
201.7707
 30
0.0
 10
312.2904
 20
201.7707
 30
0.0
 10
312.2904
 20
201.7707
 30
0.0
 10
312.2904
 20
202.3845
 30
0.0
 10
312.2904
 20
202.3845
 30
0.0
 10
312.2904
 20
202.3845
 30
0.0
 10
312.2904
 20
202.3845
 30
0.0
 10
312.4809
 20
202.8078
 30
0.0
 10
312.4809
 20
202.8078
 30
0.0
 10
312.4809
 20
202.8078
 30
0.0
 10
312.4809
 20
202.8078
 30
0.0
 10
312.6926
 20
203.0195
 30
0.0
 10
312.6926
 20
203.0195
 30
0.0
 10
312.6926
 20
203.0195
 30
0.0
 10
312.6926
 20
203.0195
 30
0.0
 10
313.3276
 20
203.21
 30
0.0
 10
313.3276
 20
203.21
 30
0.0
 10
313.3276
 20
203.21
 30
0.0
 10
313.3276
 20
203.21
 30
0.0
 10
313.7297
 20
203.21
 30
0.0
 10
313.7297
 20
203.21
 30
0.0
 10
313.7297
 20
203.21
 30
0.0
 10
313.7297
 20
203.21
 30
0.0
 10
314.3436
 20
203.0195
 30
0.0
 10
314.3436
 20
203.0195
 30
0.0
 10
314.3436
 20
203.0195
 30
0.0
 10
314.3436
 20
203.0195
 30
0.0
 10
314.7669
 20
202.5962
 30
0.0
 10
314.7669
 20
202.5962
 30
0.0
 10
314.7669
 20
202.5962
 30
0.0
 10
314.7669
 20
202.5962
 30
0.0
 10
314.9786
 20
201.9823
 30
0.0
 10
314.9786
 20
201.9823
 30
0.0
 10
314.9786
 20
201.9823
 30
0.0
 10
314.9786
 20
201.9823
 30
0.0
 10
314.9786
 20
201.3473
 30
0.0
 10
314.9786
 20
201.3473
 30
0.0
 10
314.9786
 20
201.3473
 30
0.0
 10
314.9786
 20
201.3473
 30
0.0
 10
314.7669
 20
200.7335
 30
0.0
 10
314.7669
 20
200.7335
 30
0.0
 10
314.7669
 20
200.7335
 30
0.0
 10
314.7669
 20
200.7335
 30
0.0
 10
314.5552
 20
200.5218
 30
0.0
 10
314.5552
 20
200.5218
 30
0.0
 10
314.5552
 20
200.5218
 30
0.0
 10
314.5552
 20
200.5218
 30
0.0
 10
314.1531
 20
200.3102
 30
0.0
 10
314.1531
 20
200.3102
 30
0.0
  0
SPLINE
  5
1CC
330
1F
100
AcDbEntity
  8
DEFPOINTS
370
    25
100
AcDbSpline
210
0.0
220
0.0
230
1.0
 70
    24
 71
     3
 72
     8
 73
     4
 74
     0
 42
0.0000000001
 43
0.0000000001
 40
0.0
 40
0.0
 40
0.0
 40
0.0
 40
1.0
 40
1.0
 40
1.0
 40
1.0
 10
304.2894
 20
239.2992
 30
0.0
 10
304.2894
 20
239.2992
 30
0.0
 10
325.5619
 20
239.2992
 30
0.0
 10
325.5619
 20
239.2992
 30
0.0
  0
SPLINE
  5
1CD
330
1F
100
AcDbEntity
  8
DEFPOINTS
370
    25
100
AcDbSpline
210
0.0
220
0.0
230
1.0
 70
    24
 71
     3
 72
     8
 73
     4
 74
     0
 42
0.0000000001
 43
0.0000000001
 40
0.0
 40
0.0
 40
0.0
 40
0.0
 40
1.0
 40
1.0
 40
1.0
 40
1.0
 10
306.7447
 20
156.4528
 30
0.0
 10
306.7447
 20
156.4528
 30
0.0
 10
325.5619
 20
156.4528
 30
0.0
 10
325.5619
 20
156.4528
 30
0.0
  0
SPLINE
  5
1CE
330
1F
100
AcDbEntity
  8
DEFPOINTS
370
    25
100
AcDbSpline
210
0.0
220
0.0
230
1.0
 70
    24
 71
     3
 72
     8
 73
     4
 74
     0
 42
0.0000000001
 43
0.0000000001
 40
0.0
 40
0.0
 40
0.0
 40
0.0
 40
1.0
 40
1.0
 40
1.0
 40
1.0
 10
323.3817
 20
234.96
 30
0.0
 10
323.3817
 20
234.96
 30
0.0
 10
323.3817
 20
160.8132
 30
0.0
 10
323.3817
 20
160.8132
 30
0.0
  0
SPLINE
  5
1CF
330
1F
100
AcDbEntity
  8
DEFPOINTS
100
AcDbSpline
210
0.0
220
0.0
230
1.0
 70
    11
 71
     3
 72
    16
 73
    12
 74
     0
 42
0.0000000001
 43
0.0000000001
 40
0.0
 40
0.0
 40
0.0
 40
0.0
 40
0.3333333333333333
 40
0.3333333333333333
 40
0.3333333333333333
 40
0.3333333333333333
 40
0.6666666666666666
 40
0.6666666666666666
 40
0.6666666666666666
 40
0.6666666666666666
 40
1.0
 40
1.0
 40
1.0
 40
1.0
 10
322.6621
 20
234.96
 30
0.0
 10
322.6621
 20
234.96
 30
0.0
 10
324.1226
 20
234.96
 30
0.0
 10
324.1226
 20
234.96
 30
0.0
 10
324.1226
 20
234.96
 30
0.0
 10
324.1226
 20
234.96
 30
0.0
 10
323.3817
 20
239.2992
 30
0.0
 10
323.3817
 20
239.2992
 30
0.0
 10
323.3817
 20
239.2992
 30
0.0
 10
323.3817
 20
239.2992
 30
0.0
 10
322.6621
 20
234.96
 30
0.0
 10
322.6621
 20
234.96
 30
0.0
  0
SPLINE
  5
1D0
330
1F
100
AcDbEntity
  8
DEFPOINTS
100
AcDbSpline
210
0.0
220
0.0
230
1.0
 70
    11
 71
     3
 72
    16
 73
    12
 74
     0
 42
0.0000000001
 43
0.0000000001
 40
0.0
 40
0.0
 40
0.0
 40
0.0
 40
0.3333333333333333
 40
0.3333333333333333
 40
0.3333333333333333
 40
0.3333333333333333
 40
0.6666666666666666
 40
0.6666666666666666
 40
0.6666666666666666
 40
0.6666666666666666
 40
1.0
 40
1.0
 40
1.0
 40
1.0
 10
322.6621
 20
160.8132
 30
0.0
 10
322.6621
 20
160.8132
 30
0.0
 10
324.1226
 20
160.8132
 30
0.0
 10
324.1226
 20
160.8132
 30
0.0
 10
324.1226
 20
160.8132
 30
0.0
 10
324.1226
 20
160.8132
 30
0.0
 10
323.3817
 20
156.4528
 30
0.0
 10
323.3817
 20
156.4528
 30
0.0
 10
323.3817
 20
156.4528
 30
0.0
 10
323.3817
 20
156.4528
 30
0.0
 10
322.6621
 20
160.8132
 30
0.0
 10
322.6621
 20
160.8132
 30
0.0
  0
SPLINE
  5
1D1
330
1F
100
AcDbEntity
  8
DEFPOINTS
370
    25
100
AcDbSpline
210
0.0
220
0.0
230
1.0
 70
     8
 71
     3
 72
    12
 73
     8
 74
     0
 42
0.0000000001
 43
0.0000000001
 40
0.0
 40
0.0
 40
0.0
 40
0.0
 40
0.5
 40
0.5
 40
0.5
 40
0.5
 40
1.0
 40
1.0
 40
1.0
 40
1.0
 10
318.8521
 20
194.4682
 30
0.0
 10
318.8521
 20
194.4682
 30
0.0
 10
321.7731
 20
192.3938
 30
0.0
 10
321.7731
 20
192.3938
 30
0.0
 10
321.7731
 20
192.3938
 30
0.0
 10
321.7731
 20
192.3938
 30
0.0
 10
321.7731
 20
195.5053
 30
0.0
 10
321.7731
 20
195.5053
 30
0.0
  0
SPLINE
  5
1D2
330
1F
100
AcDbEntity
  8
DEFPOINTS
370
    25
100
AcDbSpline
210
0.0
220
0.0
230
1.0
 70
    24
 71
     3
 72
     8
 73
     4
 74
     0
 42
0.0000000001
 43
0.0000000001
 40
0.0
 40
0.0
 40
0.0
 40
0.0
 40
1.0
 40
1.0
 40
1.0
 40
1.0
 10
318.8521
 20
194.4682
 30
0.0
 10
318.8521
 20
194.4682
 30
0.0
 10
323.2124
 20
194.4682
 30
0.0
 10
323.2124
 20
194.4682
 30
0.0
  0
SPLINE
  5
1D3
330
1F
100
AcDbEntity
  8
DEFPOINTS
370
    25
100
AcDbSpline
210
0.0
220
0.0
230
1.0
 70
     8
 71
     3
 72
    12
 73
     8
 74
     0
 42
0.0000000001
 43
0.0000000001
 40
0.0
 40
0.0
 40
0.0
 40
0.0
 40
0.5
 40
0.5
 40
0.5
 40
0.5
 40
1.0
 40
1.0
 40
1.0
 40
1.0
 10
318.8521
 20
196.5425
 30
0.0
 10
318.8521
 20
196.5425
 30
0.0
 10
318.8521
 20
199.4423
 30
0.0
 10
318.8521
 20
199.4423
 30
0.0
 10
318.8521
 20
199.4423
 30
0.0
 10
318.8521
 20
199.4423
 30
0.0
 10
323.2124
 20
197.368
 30
0.0
 10
323.2124
 20
197.368
 30
0.0
  0
SPLINE
  5
1D4
330
1F
100
AcDbEntity
  8
DEFPOINTS
370
    25
100
AcDbSpline
210
0.0
220
0.0
230
1.0
 70
     8
 71
     3
 72
    60
 73
    56
 74
     0
 42
0.0000000001
 43
0.0000000001
 40
0.0
 40
0.0
 40
0.0
 40
0.0
 40
0.0714285714285714
 40
0.0714285714285714
 40
0.0714285714285714
 40
0.0714285714285714
 40
0.1428571428571428
 40
0.1428571428571428
 40
0.1428571428571428
 40
0.1428571428571428
 40
0.2142857142857143
 40
0.2142857142857143
 40
0.2142857142857143
 40
0.2142857142857143
 40
0.2857142857142857
 40
0.2857142857142857
 40
0.2857142857142857
 40
0.2857142857142857
 40
0.3571428571428571
 40
0.3571428571428571
 40
0.3571428571428571
 40
0.3571428571428571
 40
0.4285714285714285
 40
0.4285714285714285
 40
0.4285714285714285
 40
0.4285714285714285
 40
0.4999999999999999
 40
0.4999999999999999
 40
0.4999999999999999
 40
0.4999999999999999
 40
0.5714285714285713
 40
0.5714285714285713
 40
0.5714285714285713
 40
0.5714285714285713
 40
0.6428571428571427
 40
0.6428571428571427
 40
0.6428571428571427
 40
0.6428571428571427
 40
0.7142857142857141
 40
0.7142857142857141
 40
0.7142857142857141
 40
0.7142857142857141
 40
0.7857142857142855
 40
0.7857142857142855
 40
0.7857142857142855
 40
0.7857142857142855
 40
0.8571428571428569
 40
0.8571428571428569
 40
0.8571428571428569
 40
0.8571428571428569
 40
0.9285714285714283
 40
0.9285714285714283
 40
0.9285714285714283
 40
0.9285714285714283
 40
1.0
 40
1.0
 40
1.0
 40
1.0
 10
319.4871
 20
203.1677
 30
0.0
 10
319.4871
 20
203.1677
 30
0.0
 10
319.0637
 20
202.956
 30
0.0
 10
319.0637
 20
202.956
 30
0.0
 10
319.0637
 20
202.956
 30
0.0
 10
319.0637
 20
202.956
 30
0.0
 10
318.8521
 20
202.3422
 30
0.0
 10
318.8521
 20
202.3422
 30
0.0
 10
318.8521
 20
202.3422
 30
0.0
 10
318.8521
 20
202.3422
 30
0.0
 10
318.8521
 20
201.9188
 30
0.0
 10
318.8521
 20
201.9188
 30
0.0
 10
318.8521
 20
201.9188
 30
0.0
 10
318.8521
 20
201.9188
 30
0.0
 10
319.0637
 20
201.305
 30
0.0
 10
319.0637
 20
201.305
 30
0.0
 10
319.0637
 20
201.305
 30
0.0
 10
319.0637
 20
201.305
 30
0.0
 10
319.6987
 20
200.8817
 30
0.0
 10
319.6987
 20
200.8817
 30
0.0
 10
319.6987
 20
200.8817
 30
0.0
 10
319.6987
 20
200.8817
 30
0.0
 10
320.7359
 20
200.6912
 30
0.0
 10
320.7359
 20
200.6912
 30
0.0
 10
320.7359
 20
200.6912
 30
0.0
 10
320.7359
 20
200.6912
 30
0.0
 10
321.7731
 20
200.6912
 30
0.0
 10
321.7731
 20
200.6912
 30
0.0
 10
321.7731
 20
200.6912
 30
0.0
 10
321.7731
 20
200.6912
 30
0.0
 10
322.5986
 20
200.8817
 30
0.0
 10
322.5986
 20
200.8817
 30
0.0
 10
322.5986
 20
200.8817
 30
0.0
 10
323.423
 20
201.4913
 30
0.0
 10
323.423
 20
202.5581
 30
0.0
 10
322.5986
 20
203.1677
 30
0.0
 10
322.5986
 20
203.1677
 30
0.0
 10
322.5986
 20
203.1677
 30
0.0
 10
321.9636
 20
203.3793
 30
0.0
 10
321.9636
 20
203.3793
 30
0.0
 10
321.9636
 20
203.3793
 30
0.0
 10
321.9636
 20
203.3793
 30
0.0
 10
321.7731
 20
203.3793
 30
0.0
 10
321.7731
 20
203.3793
 30
0.0
 10
321.7731
 20
203.3793
 30
0.0
 10
321.7731
 20
203.3793
 30
0.0
 10
321.1381
 20
203.1677
 30
0.0
 10
321.1381
 20
203.1677
 30
0.0
 10
321.1381
 20
203.1677
 30
0.0
 10
320.3136
 20
202.5584
 30
0.0
 10
320.3136
 20
201.4913
 30
0.0
 10
321.1381
 20
200.8817
 30
0.0
 10
321.1381
 20
200.8817
 30
0.0
 10
321.1381
 20
200.8817
 30
0.0
 10
321.7731
 20
200.6912
 30
0.0
 10
321.7731
 20
200.6912
 30
0.0
  0
SPLINE
  5
1D5
330
1F
100
AcDbEntity
  8
DEFPOINTS
370
    25
100
AcDbSpline
210
0.0
220
0.0
230
1.0
 70
    24
 71
     3
 72
     8
 73
     4
 74
     0
 42
0.0000000001
 43
0.0000000001
 40
0.0
 40
0.0
 40
0.0
 40
0.0
 40
1.0
 40
1.0
 40
1.0
 40
1.0
 10
303.1041
 20
239.8283
 30
0.0
 10
303.1041
 20
239.8283
 30
0.0
 10
334.0074
 20
239.8283
 30
0.0
 10
334.0074
 20
239.8283
 30
0.0
  0
SPLINE
  5
1D6
330
1F
100
AcDbEntity
  8
DEFPOINTS
370
    25
100
AcDbSpline
210
0.0
220
0.0
230
1.0
 70
    24
 71
     3
 72
     8
 73
     4
 74
     0
 42
0.0000000001
 43
0.0000000001
 40
0.0
 40
0.0
 40
0.0
 40
0.0
 40
1.0
 40
1.0
 40
1.0
 40
1.0
 10
305.0091
 20
156.4528
 30
0.0
 10
305.0091
 20
156.4528
 30
0.0
 10
334.0074
 20
156.4528
 30
0.0
 10
334.0074
 20
156.4528
 30
0.0
  0
SPLINE
  5
1D7
330
1F
100
AcDbEntity
  8
DEFPOINTS
370
    25
100
AcDbSpline
210
0.0
220
0.0
230
1.0
 70
    24
 71
     3
 72
     8
 73
     4
 74
     0
 42
0.0000000001
 43
0.0000000001
 40
0.0
 40
0.0
 40
0.0
 40
0.0
 40
1.0
 40
1.0
 40
1.0
 40
1.0
 10
331.8272
 20
235.4892
 30
0.0
 10
331.8272
 20
235.4892
 30
0.0
 10
331.8272
 20
160.8132
 30
0.0
 10
331.8272
 20
160.8132
 30
0.0
  0
SPLINE
  5
1D8
330
1F
100
AcDbEntity
  8
DEFPOINTS
100
AcDbSpline
210
0.0
220
0.0
230
1.0
 70
    11
 71
     3
 72
    16
 73
    12
 74
     0
 42
0.0000000001
 43
0.0000000001
 40
0.0
 40
0.0
 40
0.0
 40
0.0
 40
0.3333333333333333
 40
0.3333333333333333
 40
0.3333333333333333
 40
0.3333333333333333
 40
0.6666666666666666
 40
0.6666666666666666
 40
0.6666666666666666
 40
0.6666666666666666
 40
1.0
 40
1.0
 40
1.0
 40
1.0
 10
331.1076
 20
235.4892
 30
0.0
 10
331.1076
 20
235.4892
 30
0.0
 10
332.5681
 20
235.4892
 30
0.0
 10
332.5681
 20
235.4892
 30
0.0
 10
332.5681
 20
235.4892
 30
0.0
 10
332.5681
 20
235.4892
 30
0.0
 10
331.8272
 20
239.8283
 30
0.0
 10
331.8272
 20
239.8283
 30
0.0
 10
331.8272
 20
239.8283
 30
0.0
 10
331.8272
 20
239.8283
 30
0.0
 10
331.1076
 20
235.4892
 30
0.0
 10
331.1076
 20
235.4892
 30
0.0
  0
SPLINE
  5
1D9
330
1F
100
AcDbEntity
  8
DEFPOINTS
100
AcDbSpline
210
0.0
220
0.0
230
1.0
 70
    11
 71
     3
 72
    16
 73
    12
 74
     0
 42
0.0000000001
 43
0.0000000001
 40
0.0
 40
0.0
 40
0.0
 40
0.0
 40
0.3333333333333333
 40
0.3333333333333333
 40
0.3333333333333333
 40
0.3333333333333333
 40
0.6666666666666666
 40
0.6666666666666666
 40
0.6666666666666666
 40
0.6666666666666666
 40
1.0
 40
1.0
 40
1.0
 40
1.0
 10
331.1076
 20
160.8132
 30
0.0
 10
331.1076
 20
160.8132
 30
0.0
 10
332.5681
 20
160.8132
 30
0.0
 10
332.5681
 20
160.8132
 30
0.0
 10
332.5681
 20
160.8132
 30
0.0
 10
332.5681
 20
160.8132
 30
0.0
 10
331.8272
 20
156.4528
 30
0.0
 10
331.8272
 20
156.4528
 30
0.0
 10
331.8272
 20
156.4528
 30
0.0
 10
331.8272
 20
156.4528
 30
0.0
 10
331.1076
 20
160.8132
 30
0.0
 10
331.1076
 20
160.8132
 30
0.0
  0
SPLINE
  5
1DA
330
1F
100
AcDbEntity
  8
DEFPOINTS
370
    25
100
AcDbSpline
210
0.0
220
0.0
230
1.0
 70
     8
 71
     3
 72
    12
 73
     8
 74
     0
 42
0.0000000001
 43
0.0000000001
 40
0.0
 40
0.0
 40
0.0
 40
0.0
 40
0.5
 40
0.5
 40
0.5
 40
0.5
 40
1.0
 40
1.0
 40
1.0
 40
1.0
 10
327.3187
 20
194.7222
 30
0.0
 10
327.3187
 20
194.7222
 30
0.0
 10
330.2186
 20
192.6478
 30
0.0
 10
330.2186
 20
192.6478
 30
0.0
 10
330.2186
 20
192.6478
 30
0.0
 10
330.2186
 20
192.6478
 30
0.0
 10
330.2186
 20
195.7593
 30
0.0
 10
330.2186
 20
195.7593
 30
0.0
  0
SPLINE
  5
1DB
330
1F
100
AcDbEntity
  8
DEFPOINTS
370
    25
100
AcDbSpline
210
0.0
220
0.0
230
1.0
 70
    24
 71
     3
 72
     8
 73
     4
 74
     0
 42
0.0000000001
 43
0.0000000001
 40
0.0
 40
0.0
 40
0.0
 40
0.0
 40
1.0
 40
1.0
 40
1.0
 40
1.0
 10
327.3187
 20
194.7222
 30
0.0
 10
327.3187
 20
194.7222
 30
0.0
 10
331.6579
 20
194.7222
 30
0.0
 10
331.6579
 20
194.7222
 30
0.0
  0
SPLINE
  5
1DC
330
1F
100
AcDbEntity
  8
DEFPOINTS
370
    25
100
AcDbSpline
210
0.0
220
0.0
230
1.0
 70
     8
 71
     3
 72
    12
 73
     8
 74
     0
 42
0.0000000001
 43
0.0000000001
 40
0.0
 40
0.0
 40
0.0
 40
0.0
 40
0.5
 40
0.5
 40
0.5
 40
0.5
 40
1.0
 40
1.0
 40
1.0
 40
1.0
 10
327.3187
 20
196.7965
 30
0.0
 10
327.3187
 20
196.7965
 30
0.0
 10
327.3187
 20
199.6963
 30
0.0
 10
327.3187
 20
199.6963
 30
0.0
 10
327.3187
 20
199.6963
 30
0.0
 10
327.3187
 20
199.6963
 30
0.0
 10
331.6579
 20
197.622
 30
0.0
 10
331.6579
 20
197.622
 30
0.0
  0
SPLINE
  5
1DD
330
1F
100
AcDbEntity
  8
DEFPOINTS
370
    25
100
AcDbSpline
210
0.0
220
0.0
230
1.0
 70
     8
 71
     3
 72
    76
 73
    72
 74
     0
 42
0.0000000001
 43
0.0000000001
 40
0.0
 40
0.0
 40
0.0
 40
0.0
 40
0.0555555555555556
 40
0.0555555555555556
 40
0.0555555555555556
 40
0.0555555555555556
 40
0.1111111111111111
 40
0.1111111111111111
 40
0.1111111111111111
 40
0.1111111111111111
 40
0.1666666666666667
 40
0.1666666666666667
 40
0.1666666666666667
 40
0.1666666666666667
 40
0.2222222222222222
 40
0.2222222222222222
 40
0.2222222222222222
 40
0.2222222222222222
 40
0.2777777777777778
 40
0.2777777777777778
 40
0.2777777777777778
 40
0.2777777777777778
 40
0.3333333333333334
 40
0.3333333333333334
 40
0.3333333333333334
 40
0.3333333333333334
 40
0.388888888888889
 40
0.388888888888889
 40
0.388888888888889
 40
0.388888888888889
 40
0.4444444444444445
 40
0.4444444444444445
 40
0.4444444444444445
 40
0.4444444444444445
 40
0.5000000000000001
 40
0.5000000000000001
 40
0.5000000000000001
 40
0.5000000000000001
 40
0.5555555555555557
 40
0.5555555555555557
 40
0.5555555555555557
 40
0.5555555555555557
 40
0.6111111111111113
 40
0.6111111111111113
 40
0.6111111111111113
 40
0.6111111111111113
 40
0.6666666666666669
 40
0.6666666666666669
 40
0.6666666666666669
 40
0.6666666666666669
 40
0.7222222222222224
 40
0.7222222222222224
 40
0.7222222222222224
 40
0.7222222222222224
 40
0.777777777777778
 40
0.777777777777778
 40
0.777777777777778
 40
0.777777777777778
 40
0.8333333333333336
 40
0.8333333333333336
 40
0.8333333333333336
 40
0.8333333333333336
 40
0.8888888888888892
 40
0.8888888888888892
 40
0.8888888888888892
 40
0.8888888888888892
 40
0.9444444444444448
 40
0.9444444444444448
 40
0.9444444444444448
 40
0.9444444444444448
 40
1.0
 40
1.0
 40
1.0
 40
1.0
 10
328.7581
 20
203.6333
 30
0.0
 10
328.7581
 20
203.6333
 30
0.0
 10
329.3719
 20
203.4217
 30
0.0
 10
329.3719
 20
203.4217
 30
0.0
 10
329.3719
 20
203.4217
 30
0.0
 10
329.3719
 20
203.4217
 30
0.0
 10
329.7952
 20
203.0195
 30
0.0
 10
329.7952
 20
203.0195
 30
0.0
 10
329.7952
 20
203.0195
 30
0.0
 10
329.7952
 20
203.0195
 30
0.0
 10
330.0069
 20
202.3845
 30
0.0
 10
330.0069
 20
202.3845
 30
0.0
 10
330.0069
 20
202.3845
 30
0.0
 10
330.0069
 20
202.3845
 30
0.0
 10
330.0069
 20
202.194
 30
0.0
 10
330.0069
 20
202.194
 30
0.0
 10
330.0069
 20
202.194
 30
0.0
 10
330.0069
 20
202.194
 30
0.0
 10
329.7952
 20
201.559
 30
0.0
 10
329.7952
 20
201.559
 30
0.0
 10
329.7952
 20
201.559
 30
0.0
 10
329.1856
 20
200.7349
 30
0.0
 10
328.1188
 20
200.7349
 30
0.0
 10
327.5092
 20
201.559
 30
0.0
 10
327.5092
 20
201.559
 30
0.0
 10
327.5092
 20
201.559
 30
0.0
 10
327.3187
 20
202.194
 30
0.0
 10
327.3187
 20
202.194
 30
0.0
 10
327.3187
 20
202.194
 30
0.0
 10
327.3187
 20
202.194
 30
0.0
 10
327.3187
 20
202.3845
 30
0.0
 10
327.3187
 20
202.3845
 30
0.0
 10
327.3187
 20
202.3845
 30
0.0
 10
327.3187
 20
202.3845
 30
0.0
 10
327.5092
 20
203.0195
 30
0.0
 10
327.5092
 20
203.0195
 30
0.0
 10
327.5092
 20
203.0195
 30
0.0
 10
327.5092
 20
203.0195
 30
0.0
 10
327.9326
 20
203.4217
 30
0.0
 10
327.9326
 20
203.4217
 30
0.0
 10
327.9326
 20
203.4217
 30
0.0
 10
327.9326
 20
203.4217
 30
0.0
 10
328.7581
 20
203.6333
 30
0.0
 10
328.7581
 20
203.6333
 30
0.0
 10
328.7581
 20
203.6333
 30
0.0
 10
328.7581
 20
203.6333
 30
0.0
 10
329.7952
 20
203.6333
 30
0.0
 10
329.7952
 20
203.6333
 30
0.0
 10
329.7952
 20
203.6333
 30
0.0
 10
329.7952
 20
203.6333
 30
0.0
 10
330.8324
 20
203.4217
 30
0.0
 10
330.8324
 20
203.4217
 30
0.0
 10
330.8324
 20
203.4217
 30
0.0
 10
330.8324
 20
203.4217
 30
0.0
 10
331.4462
 20
203.0195
 30
0.0
 10
331.4462
 20
203.0195
 30
0.0
 10
331.4462
 20
203.0195
 30
0.0
 10
331.4462
 20
203.0195
 30
0.0
 10
331.6579
 20
202.3845
 30
0.0
 10
331.6579
 20
202.3845
 30
0.0
 10
331.6579
 20
202.3845
 30
0.0
 10
331.6579
 20
202.3845
 30
0.0
 10
331.6579
 20
201.9823
 30
0.0
 10
331.6579
 20
201.9823
 30
0.0
 10
331.6579
 20
201.9823
 30
0.0
 10
331.6579
 20
201.9823
 30
0.0
 10
331.4462
 20
201.3685
 30
0.0
 10
331.4462
 20
201.3685
 30
0.0
 10
331.4462
 20
201.3685
 30
0.0
 10
331.4462
 20
201.3685
 30
0.0
 10
331.0441
 20
201.1568
 30
0.0
 10
331.0441
 20
201.1568
 30
0.0
  0
SPLINE
  5
1DE
330
1F
100
AcDbEntity
  8
DEFPOINTS
370
    25
100
AcDbSpline
210
0.0
220
0.0
230
1.0
 70
    24
 71
     3
 72
     8
 73
     4
 74
     0
 42
0.0000000001
 43
0.0000000001
 40
0.0
 40
0.0
 40
0.0
 40
0.0
 40
1.0
 40
1.0
 40
1.0
 40
1.0
 10
320.3549
 20
255.788
 30
0.0
 10
320.3549
 20
255.788
 30
0.0
 10
309.4541
 20
241.691
 30
0.0
 10
309.4541
 20
241.691
 30
0.0
  0
SPLINE
  5
1DF
330
1F
100
AcDbEntity
  8
DEFPOINTS
370
    25
100
AcDbSpline
210
0.0
220
0.0
230
1.0
 70
     8
 71
     3
 72
    44
 73
    40
 74
     0
 42
0.0000000001
 43
0.0000000001
 40
0.0
 40
0.0
 40
0.0
 40
0.0
 40
0.1
 40
0.1
 40
0.1
 40
0.1
 40
0.2
 40
0.2
 40
0.2
 40
0.2
 40
0.3
 40
0.3
 40
0.3
 40
0.3
 40
0.4
 40
0.4
 40
0.4
 40
0.4
 40
0.5
 40
0.5
 40
0.5
 40
0.5
 40
0.6
 40
0.6
 40
0.6
 40
0.6
 40
0.7
 40
0.7
 40
0.7
 40
0.7
 40
0.7999999999999999
 40
0.7999999999999999
 40
0.7999999999999999
 40
0.7999999999999999
 40
0.8999999999999999
 40
0.8999999999999999
 40
0.8999999999999999
 40
0.8999999999999999
 40
1.0
 40
1.0
 40
1.0
 40
1.0
 10
313.6451
 20
247.406
 30
0.0
 10
313.6451
 20
247.406
 30
0.0
 10
310.2161
 20
250.073
 30
0.0
 10
310.2161
 20
250.073
 30
0.0
 10
310.2161
 20
250.073
 30
0.0
 10
310.2161
 20
250.073
 30
0.0
 10
311.3591
 20
251.5335
 30
0.0
 10
311.3591
 20
251.5335
 30
0.0
 10
311.3591
 20
251.5335
 30
0.0
 10
311.3591
 20
251.5335
 30
0.0
 10
311.8882
 20
251.9145
 30
0.0
 10
311.8882
 20
251.9145
 30
0.0
 10
311.8882
 20
251.9145
 30
0.0
 10
311.8882
 20
251.9145
 30
0.0
 10
312.1846
 20
251.9357
 30
0.0
 10
312.1846
 20
251.9357
 30
0.0
 10
312.1846
 20
251.9357
 30
0.0
 10
312.1846
 20
251.9357
 30
0.0
 10
312.6291
 20
251.851
 30
0.0
 10
312.6291
 20
251.851
 30
0.0
 10
312.6291
 20
251.851
 30
0.0
 10
312.6291
 20
251.851
 30
0.0
 10
312.9677
 20
251.597
 30
0.0
 10
312.9677
 20
251.597
 30
0.0
 10
312.9677
 20
251.597
 30
0.0
 10
312.9677
 20
251.597
 30
0.0
 10
313.1582
 20
251.1948
 30
0.0
 10
313.1582
 20
251.1948
 30
0.0
 10
313.1582
 20
251.1948
 30
0.0
 10
313.1582
 20
251.1948
 30
0.0
 10
313.2006
 20
250.8985
 30
0.0
 10
313.2006
 20
250.8985
 30
0.0
 10
313.2006
 20
250.8985
 30
0.0
 10
313.2006
 20
250.8985
 30
0.0
 10
312.9889
 20
250.2847
 30
0.0
 10
312.9889
 20
250.2847
 30
0.0
 10
312.9889
 20
250.2847
 30
0.0
 10
312.9889
 20
250.2847
 30
0.0
 10
311.8459
 20
248.803
 30
0.0
 10
311.8459
 20
248.803
 30
0.0
  0
SPLINE
  5
1E0
330
1F
100
AcDbEntity
  8
DEFPOINTS
370
    25
100
AcDbSpline
210
0.0
220
0.0
230
1.0
 70
    24
 71
     3
 72
     8
 73
     4
 74
     0
 42
0.0000000001
 43
0.0000000001
 40
0.0
 40
0.0
 40
0.0
 40
0.0
 40
1.0
 40
1.0
 40
1.0
 40
1.0
 10
312.7349
 20
249.946
 30
0.0
 10
312.7349
 20
249.946
 30
0.0
 10
315.4231
 20
249.692
 30
0.0
 10
315.4231
 20
249.692
 30
0.0
  0
SPLINE
  5
1E1
330
1F
100
AcDbEntity
  8
DEFPOINTS
370
    25
100
AcDbSpline
210
0.0
220
0.0
230
1.0
 70
     8
 71
     3
 72
    16
 73
    12
 74
     0
 42
0.0000000001
 43
0.0000000001
 40
0.0
 40
0.0
 40
0.0
 40
0.0
 40
0.3333333333333333
 40
0.3333333333333333
 40
0.3333333333333333
 40
0.3333333333333333
 40
0.6666666666666666
 40
0.6666666666666666
 40
0.6666666666666666
 40
0.6666666666666666
 40
1.0
 40
1.0
 40
1.0
 40
1.0
 10
313.5181
 20
252.994
 30
0.0
 10
313.5181
 20
252.994
 30
0.0
 10
313.6239
 20
253.4597
 30
0.0
 10
313.6239
 20
253.4597
 30
0.0
 10
313.6239
 20
253.4597
 30
0.0
 10
313.6239
 20
253.4597
 30
0.0
 10
313.4969
 20
254.3275
 30
0.0
 10
313.4969
 20
254.3275
 30
0.0
 10
313.4969
 20
254.3275
 30
0.0
 10
313.4969
 20
254.3275
 30
0.0
 10
316.9471
 20
251.6605
 30
0.0
 10
316.9471
 20
251.6605
 30
0.0
  0
SPLINE
  5
1E2
330
1F
100
AcDbEntity
  8
DEFPOINTS
370
    25
100
AcDbSpline
210
0.0
220
0.0
230
1.0
 70
     8
 71
     3
 72
    68
 73
    64
 74
     0
 42
0.0000000001
 43
0.0000000001
 40
0.0
 40
0.0
 40
0.0
 40
0.0
 40
0.0625
 40
0.0625
 40
0.0625
 40
0.0625
 40
0.125
 40
0.125
 40
0.125
 40
0.125
 40
0.1875
 40
0.1875
 40
0.1875
 40
0.1875
 40
0.25
 40
0.25
 40
0.25
 40
0.25
 40
0.3125
 40
0.3125
 40
0.3125
 40
0.3125
 40
0.375
 40
0.375
 40
0.375
 40
0.375
 40
0.4375
 40
0.4375
 40
0.4375
 40
0.4375
 40
0.5
 40
0.5
 40
0.5
 40
0.5
 40
0.5625
 40
0.5625
 40
0.5625
 40
0.5625
 40
0.625
 40
0.625
 40
0.625
 40
0.625
 40
0.6875
 40
0.6875
 40
0.6875
 40
0.6875
 40
0.75
 40
0.75
 40
0.75
 40
0.75
 40
0.8125
 40
0.8125
 40
0.8125
 40
0.8125
 40
0.875
 40
0.875
 40
0.875
 40
0.875
 40
0.9375
 40
0.9375
 40
0.9375
 40
0.9375
 40
1.0
 40
1.0
 40
1.0
 40
1.0
 10
316.4179
 20
258.0952
 30
0.0
 10
316.4179
 20
258.0952
 30
0.0
 10
315.1479
 20
256.4653
 30
0.0
 10
315.1479
 20
256.4653
 30
0.0
 10
315.1479
 20
256.4653
 30
0.0
 10
315.1479
 20
256.4653
 30
0.0
 10
316.5026
 20
255.153
 30
0.0
 10
316.5026
 20
255.153
 30
0.0
 10
316.5026
 20
255.153
 30
0.0
 10
316.5026
 20
255.153
 30
0.0
 10
316.4602
 20
255.4493
 30
0.0
 10
316.4602
 20
255.4493
 30
0.0
 10
316.4602
 20
255.4493
 30
0.0
 10
316.4602
 20
255.4493
 30
0.0
 10
316.6719
 20
256.0632
 30
0.0
 10
316.6719
 20
256.0632
 30
0.0
 10
316.6719
 20
256.0632
 30
0.0
 10
316.6719
 20
256.0632
 30
0.0
 10
317.0529
 20
256.55
 30
0.0
 10
317.0529
 20
256.55
 30
0.0
 10
317.0529
 20
256.55
 30
0.0
 10
317.0529
 20
256.55
 30
0.0
 10
317.6032
 20
256.931
 30
0.0
 10
317.6032
 20
256.931
 30
0.0
 10
317.6032
 20
256.931
 30
0.0
 10
317.6032
 20
256.931
 30
0.0
 10
318.1959
 20
256.9945
 30
0.0
 10
318.1959
 20
256.9945
 30
0.0
 10
318.1959
 20
256.9945
 30
0.0
 10
318.1959
 20
256.9945
 30
0.0
 10
318.8097
 20
256.7828
 30
0.0
 10
318.8097
 20
256.7828
 30
0.0
 10
318.8097
 20
256.7828
 30
0.0
 10
318.8097
 20
256.7828
 30
0.0
 10
319.1272
 20
256.5288
 30
0.0
 10
319.1272
 20
256.5288
 30
0.0
 10
319.1272
 20
256.5288
 30
0.0
 10
319.1272
 20
256.5288
 30
0.0
 10
319.4871
 20
255.9785
 30
0.0
 10
319.4871
 20
255.9785
 30
0.0
 10
319.4871
 20
255.9785
 30
0.0
 10
319.4871
 20
255.9785
 30
0.0
 10
319.5717
 20
255.407
 30
0.0
 10
319.5717
 20
255.407
 30
0.0
 10
319.5717
 20
255.407
 30
0.0
 10
319.5717
 20
255.407
 30
0.0
 10
319.3601
 20
254.772
 30
0.0
 10
319.3601
 20
254.772
 30
0.0
 10
319.3601
 20
254.772
 30
0.0
 10
319.3601
 20
254.772
 30
0.0
 10
318.9791
 20
254.2852
 30
0.0
 10
318.9791
 20
254.2852
 30
0.0
 10
318.9791
 20
254.2852
 30
0.0
 10
318.9791
 20
254.2852
 30
0.0
 10
318.4287
 20
253.9253
 30
0.0
 10
318.4287
 20
253.9253
 30
0.0
 10
318.4287
 20
253.9253
 30
0.0
 10
318.4287
 20
253.9253
 30
0.0
 10
318.1324
 20
253.883
 30
0.0
 10
318.1324
 20
253.883
 30
0.0
 10
318.1324
 20
253.883
 30
0.0
 10
318.1324
 20
253.883
 30
0.0
 10
317.6879
 20
253.9677
 30
0.0
 10
317.6879
 20
253.9677
 30
0.0
  0
SPLINE
  5
1E3
330
1F
100
AcDbEntity
  8
DEFPOINTS
100
AcDbSpline
210
0.0
220
0.0
230
1.0
 70
    11
 71
     3
 72
    16
 73
    12
 74
     0
 42
0.0000000001
 43
0.0000000001
 40
0.0
 40
0.0
 40
0.0
 40
0.0
 40
0.3333333333333333
 40
0.3333333333333333
 40
0.3333333333333333
 40
0.3333333333333333
 40
0.6666666666666666
 40
0.6666666666666666
 40
0.6666666666666666
 40
0.6666666666666666
 40
1.0
 40
1.0
 40
1.0
 40
1.0
 10
308.8614
 20
242.1355
 30
0.0
 10
308.8614
 20
242.1355
 30
0.0
 10
310.0256
 20
241.2465
 30
0.0
 10
310.0256
 20
241.2465
 30
0.0
 10
310.0256
 20
241.2465
 30
0.0
 10
310.0256
 20
241.2465
 30
0.0
 10
306.7871
 20
238.2408
 30
0.0
 10
306.7871
 20
238.2408
 30
0.0
 10
306.7871
 20
238.2408
 30
0.0
 10
306.7871
 20
238.2408
 30
0.0
 10
308.8614
 20
242.1355
 30
0.0
 10
308.8614
 20
242.1355
 30
0.0
  0
SPLINE
  5
1E4
330
1F
100
AcDbEntity
  8
DEFPOINTS
370
    25
100
AcDbSpline
210
0.0
220
0.0
230
1.0
 70
    24
 71
     3
 72
     8
 73
     4
 74
     0
 42
0.0000000001
 43
0.0000000001
 40
0.0
 40
0.0
 40
0.0
 40
0.0
 40
1.0
 40
1.0
 40
1.0
 40
1.0
 10
168.8016
 20
253.8407
 30
0.0
 10
168.8016
 20
253.8407
 30
0.0
 10
178.0726
 20
241.7122
 30
0.0
 10
178.0726
 20
241.7122
 30
0.0
  0
SPLINE
  5
1E5
330
1F
100
AcDbEntity
  8
DEFPOINTS
370
    25
100
AcDbSpline
210
0.0
220
0.0
230
1.0
 70
     8
 71
     3
 72
    44
 73
    40
 74
     0
 42
0.0000000001
 43
0.0000000001
 40
0.0
 40
0.0
 40
0.0
 40
0.0
 40
0.1
 40
0.1
 40
0.1
 40
0.1
 40
0.2
 40
0.2
 40
0.2
 40
0.2
 40
0.3
 40
0.3
 40
0.3
 40
0.3
 40
0.4
 40
0.4
 40
0.4
 40
0.4
 40
0.5
 40
0.5
 40
0.5
 40
0.5
 40
0.6
 40
0.6
 40
0.6
 40
0.6
 40
0.7
 40
0.7
 40
0.7
 40
0.7
 40
0.7999999999999999
 40
0.7999999999999999
 40
0.7999999999999999
 40
0.7999999999999999
 40
0.8999999999999999
 40
0.8999999999999999
 40
0.8999999999999999
 40
0.8999999999999999
 40
1.0
 40
1.0
 40
1.0
 40
1.0
 10
169.0556
 20
253.7983
 30
0.0
 10
169.0556
 20
253.7983
 30
0.0
 10
172.5057
 20
256.4442
 30
0.0
 10
172.5057
 20
256.4442
 30
0.0
 10
172.5057
 20
256.4442
 30
0.0
 10
172.5057
 20
256.4442
 30
0.0
 10
173.6276
 20
254.9625
 30
0.0
 10
173.6276
 20
254.9625
 30
0.0
 10
173.6276
 20
254.9625
 30
0.0
 10
173.6276
 20
254.9625
 30
0.0
 10
173.8392
 20
254.3487
 30
0.0
 10
173.8392
 20
254.3487
 30
0.0
 10
173.8392
 20
254.3487
 30
0.0
 10
173.8392
 20
254.3487
 30
0.0
 10
173.8181
 20
254.0523
 30
0.0
 10
173.8181
 20
254.0523
 30
0.0
 10
173.8181
 20
254.0523
 30
0.0
 10
173.8181
 20
254.0523
 30
0.0
 10
173.6064
 20
253.629
 30
0.0
 10
173.6064
 20
253.629
 30
0.0
 10
173.6064
 20
253.629
 30
0.0
 10
173.6064
 20
253.629
 30
0.0
 10
173.2889
 20
253.375
 30
0.0
 10
173.2889
 20
253.375
 30
0.0
 10
173.2889
 20
253.375
 30
0.0
 10
173.2889
 20
253.375
 30
0.0
 10
172.8232
 20
253.2903
 30
0.0
 10
172.8232
 20
253.2903
 30
0.0
 10
172.8232
 20
253.2903
 30
0.0
 10
172.8232
 20
253.2903
 30
0.0
 10
172.5269
 20
253.3327
 30
0.0
 10
172.5269
 20
253.3327
 30
0.0
 10
172.5269
 20
253.3327
 30
0.0
 10
172.5269
 20
253.3327
 30
0.0
 10
171.9977
 20
253.7137
 30
0.0
 10
171.9977
 20
253.7137
 30
0.0
 10
171.9977
 20
253.7137
 30
0.0
 10
171.9977
 20
253.7137
 30
0.0
 10
170.8547
 20
255.1953
 30
0.0
 10
170.8547
 20
255.1953
 30
0.0
  0
SPLINE
  5
1E6
330
1F
100
AcDbEntity
  8
DEFPOINTS
370
    25
100
AcDbSpline
210
0.0
220
0.0
230
1.0
 70
    24
 71
     3
 72
     8
 73
     4
 74
     0
 42
0.0000000001
 43
0.0000000001
 40
0.0
 40
0.0
 40
0.0
 40
0.0
 40
1.0
 40
1.0
 40
1.0
 40
1.0
 10
171.7437
 20
254.0312
 30
0.0
 10
171.7437
 20
254.0312
 30
0.0
 10
170.8124
 20
251.4912
 30
0.0
 10
170.8124
 20
251.4912
 30
0.0
  0
SPLINE
  5
1E7
330
1F
100
AcDbEntity
  8
DEFPOINTS
370
    25
100
AcDbSpline
210
0.0
220
0.0
230
1.0
 70
     8
 71
     3
 72
    16
 73
    12
 74
     0
 42
0.0000000001
 43
0.0000000001
 40
0.0
 40
0.0
 40
0.0
 40
0.0
 40
0.3333333333333333
 40
0.3333333333333333
 40
0.3333333333333333
 40
0.3333333333333333
 40
0.6666666666666666
 40
0.6666666666666666
 40
0.6666666666666666
 40
0.6666666666666666
 40
1.0
 40
1.0
 40
1.0
 40
1.0
 10
174.4954
 20
252.486
 30
0.0
 10
174.4954
 20
252.486
 30
0.0
 10
174.8976
 20
252.2743
 30
0.0
 10
174.8976
 20
252.2743
 30
0.0
 10
174.8976
 20
252.2743
 30
0.0
 10
174.8976
 20
252.2743
 30
0.0
 10
175.7866
 20
252.1685
 30
0.0
 10
175.7866
 20
252.1685
 30
0.0
 10
175.7866
 20
252.1685
 30
0.0
 10
175.7866
 20
252.1685
 30
0.0
 10
172.3152
 20
249.5227
 30
0.0
 10
172.3152
 20
249.5227
 30
0.0
  0
SPLINE
  5
1E8
330
1F
100
AcDbEntity
  8
DEFPOINTS
370
    25
100
AcDbSpline
210
0.0
220
0.0
230
1.0
 70
     8
 71
     3
 72
    68
 73
    64
 74
     0
 42
0.0000000001
 43
0.0000000001
 40
0.0
 40
0.0
 40
0.0
 40
0.0
 40
0.0625
 40
0.0625
 40
0.0625
 40
0.0625
 40
0.125
 40
0.125
 40
0.125
 40
0.125
 40
0.1875
 40
0.1875
 40
0.1875
 40
0.1875
 40
0.25
 40
0.25
 40
0.25
 40
0.25
 40
0.3125
 40
0.3125
 40
0.3125
 40
0.3125
 40
0.375
 40
0.375
 40
0.375
 40
0.375
 40
0.4375
 40
0.4375
 40
0.4375
 40
0.4375
 40
0.5
 40
0.5
 40
0.5
 40
0.5
 40
0.5625
 40
0.5625
 40
0.5625
 40
0.5625
 40
0.625
 40
0.625
 40
0.625
 40
0.625
 40
0.6875
 40
0.6875
 40
0.6875
 40
0.6875
 40
0.75
 40
0.75
 40
0.75
 40
0.75
 40
0.8125
 40
0.8125
 40
0.8125
 40
0.8125
 40
0.875
 40
0.875
 40
0.875
 40
0.875
 40
0.9375
 40
0.9375
 40
0.9375
 40
0.9375
 40
1.0
 40
1.0
 40
1.0
 40
1.0
 10
178.6652
 20
248.3797
 30
0.0
 10
178.6652
 20
248.3797
 30
0.0
 10
177.4164
 20
250.0307
 30
0.0
 10
177.4164
 20
250.0307
 30
0.0
 10
177.4164
 20
250.0307
 30
0.0
 10
177.4164
 20
250.0307
 30
0.0
 10
175.8077
 20
249.057
 30
0.0
 10
175.8077
 20
249.057
 30
0.0
 10
175.8077
 20
249.057
 30
0.0
 10
175.8077
 20
249.057
 30
0.0
 10
176.1041
 20
249.0147
 30
0.0
 10
176.1041
 20
249.0147
 30
0.0
 10
176.1041
 20
249.0147
 30
0.0
 10
176.1041
 20
249.0147
 30
0.0
 10
176.6332
 20
248.6548
 30
0.0
 10
176.6332
 20
248.6548
 30
0.0
 10
176.6332
 20
248.6548
 30
0.0
 10
176.6332
 20
248.6548
 30
0.0
 10
177.0142
 20
248.1468
 30
0.0
 10
177.0142
 20
248.1468
 30
0.0
 10
177.0142
 20
248.1468
 30
0.0
 10
177.0142
 20
248.1468
 30
0.0
 10
177.2259
 20
247.533
 30
0.0
 10
177.2259
 20
247.533
 30
0.0
 10
177.2259
 20
247.533
 30
0.0
 10
177.2259
 20
247.533
 30
0.0
 10
177.1412
 20
246.9615
 30
0.0
 10
177.1412
 20
246.9615
 30
0.0
 10
177.1412
 20
246.9615
 30
0.0
 10
177.1412
 20
246.9615
 30
0.0
 10
176.7814
 20
246.4112
 30
0.0
 10
176.7814
 20
246.4112
 30
0.0
 10
176.7814
 20
246.4112
 30
0.0
 10
176.7814
 20
246.4112
 30
0.0
 10
176.4639
 20
246.1572
 30
0.0
 10
176.4639
 20
246.1572
 30
0.0
 10
176.4639
 20
246.1572
 30
0.0
 10
176.4639
 20
246.1572
 30
0.0
 10
175.8289
 20
245.9455
 30
0.0
 10
175.8289
 20
245.9455
 30
0.0
 10
175.8289
 20
245.9455
 30
0.0
 10
175.8289
 20
245.9455
 30
0.0
 10
175.2574
 20
246.0302
 30
0.0
 10
175.2574
 20
246.0302
 30
0.0
 10
175.2574
 20
246.0302
 30
0.0
 10
175.2574
 20
246.0302
 30
0.0
 10
174.7071
 20
246.39
 30
0.0
 10
174.7071
 20
246.39
 30
0.0
 10
174.7071
 20
246.39
 30
0.0
 10
174.7071
 20
246.39
 30
0.0
 10
174.3261
 20
246.898
 30
0.0
 10
174.3261
 20
246.898
 30
0.0
 10
174.3261
 20
246.898
 30
0.0
 10
174.3261
 20
246.898
 30
0.0
 10
174.1144
 20
247.5118
 30
0.0
 10
174.1144
 20
247.5118
 30
0.0
 10
174.1144
 20
247.5118
 30
0.0
 10
174.1144
 20
247.5118
 30
0.0
 10
174.1567
 20
247.8082
 30
0.0
 10
174.1567
 20
247.8082
 30
0.0
 10
174.1567
 20
247.8082
 30
0.0
 10
174.1567
 20
247.8082
 30
0.0
 10
174.3684
 20
248.2103
 30
0.0
 10
174.3684
 20
248.2103
 30
0.0
  0
SPLINE
  5
1E9
330
1F
100
AcDbEntity
  8
DEFPOINTS
100
AcDbSpline
210
0.0
220
0.0
230
1.0
 70
    11
 71
     3
 72
    16
 73
    12
 74
     0
 42
0.0000000001
 43
0.0000000001
 40
0.0
 40
0.0
 40
0.0
 40
0.0
 40
0.3333333333333333
 40
0.3333333333333333
 40
0.3333333333333333
 40
0.3333333333333333
 40
0.6666666666666666
 40
0.6666666666666666
 40
0.6666666666666666
 40
0.6666666666666666
 40
1.0
 40
1.0
 40
1.0
 40
1.0
 10
178.6441
 20
242.1567
 30
0.0
 10
178.6441
 20
242.1567
 30
0.0
 10
177.5011
 20
241.2677
 30
0.0
 10
177.5011
 20
241.2677
 30
0.0
 10
177.5011
 20
241.2677
 30
0.0
 10
177.5011
 20
241.2677
 30
0.0
 10
180.7184
 20
238.2408
 30
0.0
 10
180.7184
 20
238.2408
 30
0.0
 10
180.7184
 20
238.2408
 30
0.0
 10
180.7184
 20
238.2408
 30
0.0
 10
178.6441
 20
242.1567
 30
0.0
 10
178.6441
 20
242.1567
 30
0.0
  0
SPLINE
  5
1EA
330
1F
100
AcDbEntity
  8
DEFPOINTS
 62
     5
370
    25
100
AcDbSpline
210
0.0
220
0.0
230
1.0
 70
    24
 71
     3
 72
     8
 73
     4
 74
     0
 42
0.0000000001
 43
0.0000000001
 40
0.0
 40
0.0
 40
0.0
 40
0.0
 40
1.0
 40
1.0
 40
1.0
 40
1.0
 10
266.3364
 20
180.2661
 30
0.0
 10
266.3364
 20
180.2661
 30
0.0
 10
266.3364
 20
180.224
 30
0.0
 10
266.3364
 20
180.224
 30
0.0
  0
SPLINE
  5
1EB
330
1F
100
AcDbEntity
  8
DEFPOINTS
 62
     5
370
    25
100
AcDbSpline
210
0.0
220
0.0
230
1.0
 70
    24
 71
     3
 72
     8
 73
     4
 74
     0
 42
0.0000000001
 43
0.0000000001
 40
0.0
 40
0.0
 40
0.0
 40
0.0
 40
1.0
 40
1.0
 40
1.0
 40
1.0
 10
212.1292
 20
180.2661
 30
0.0
 10
212.1292
 20
180.2661
 30
0.0
 10
212.1292
 20
180.224
 30
0.0
 10
212.1292
 20
180.224
 30
0.0
  0
SPLINE
  5
1EC
330
1F
100
AcDbEntity
  8
DEFPOINTS
 62
     5
370
    25
100
AcDbSpline
210
0.0
220
0.0
230
1.0
 70
    24
 71
     3
 72
     8
 73
     4
 74
     0
 42
0.0000000001
 43
0.0000000001
 40
0.0
 40
0.0
 40
0.0
 40
0.0
 40
1.0
 40
1.0
 40
1.0
 40
1.0
 10
264.6849
 20
179.2297
 30
0.0
 10
264.6849
 20
179.2297
 30
0.0
 10
213.7808
 20
179.2297
 30
0.0
 10
213.7808
 20
179.2297
 30
0.0
  0
SPLINE
  5
1ED
330
1F
100
AcDbEntity
  8
DEFPOINTS
 62
     5
100
AcDbSpline
210
0.0
220
0.0
230
1.0
 70
    11
 71
     3
 72
    16
 73
    12
 74
     0
 42
0.0000000001
 43
0.0000000001
 40
0.0
 40
0.0
 40
0.0
 40
0.0
 40
0.3333333333333333
 40
0.3333333333333333
 40
0.3333333333333333
 40
0.3333333333333333
 40
0.6666666666666666
 40
0.6666666666666666
 40
0.6666666666666666
 40
0.6666666666666666
 40
1.0
 40
1.0
 40
1.0
 40
1.0
 10
264.6849
 20
179.5077
 30
0.0
 10
264.6849
 20
179.5077
 30
0.0
 10
264.6849
 20
178.96
 30
0.0
 10
264.6849
 20
178.96
 30
0.0
 10
264.6849
 20
178.96
 30
0.0
 10
264.6849
 20
178.96
 30
0.0
 10
266.3364
 20
179.2297
 30
0.0
 10
266.3364
 20
179.2297
 30
0.0
 10
266.3364
 20
179.2297
 30
0.0
 10
266.3364
 20
179.2297
 30
0.0
 10
264.6849
 20
179.5077
 30
0.0
 10
264.6849
 20
179.5077
 30
0.0
  0
SPLINE
  5
1EE
330
1F
100
AcDbEntity
  8
DEFPOINTS
 62
     5
100
AcDbSpline
210
0.0
220
0.0
230
1.0
 70
    11
 71
     3
 72
    16
 73
    12
 74
     0
 42
0.0000000001
 43
0.0000000001
 40
0.0
 40
0.0
 40
0.0
 40
0.0
 40
0.3333333333333333
 40
0.3333333333333333
 40
0.3333333333333333
 40
0.3333333333333333
 40
0.6666666666666666
 40
0.6666666666666666
 40
0.6666666666666666
 40
0.6666666666666666
 40
1.0
 40
1.0
 40
1.0
 40
1.0
 10
213.7808
 20
179.5077
 30
0.0
 10
213.7808
 20
179.5077
 30
0.0
 10
213.7808
 20
178.96
 30
0.0
 10
213.7808
 20
178.96
 30
0.0
 10
213.7808
 20
178.96
 30
0.0
 10
213.7808
 20
178.96
 30
0.0
 10
212.1292
 20
179.2297
 30
0.0
 10
212.1292
 20
179.2297
 30
0.0
 10
212.1292
 20
179.2297
 30
0.0
 10
212.1292
 20
179.2297
 30
0.0
 10
213.7808
 20
179.5077
 30
0.0
 10
213.7808
 20
179.5077
 30
0.0
  0
SPLINE
  5
1EF
330
1F
100
AcDbEntity
  8
DEFPOINTS
 62
     5
370
    25
100
AcDbSpline
210
0.0
220
0.0
230
1.0
 70
     8
 71
     3
 72
    28
 73
    24
 74
     0
 42
0.0000000001
 43
0.0000000001
 40
0.0
 40
0.0
 40
0.0
 40
0.0
 40
0.1666666666666667
 40
0.1666666666666667
 40
0.1666666666666667
 40
0.1666666666666667
 40
0.3333333333333333
 40
0.3333333333333333
 40
0.3333333333333333
 40
0.3333333333333333
 40
0.5
 40
0.5
 40
0.5
 40
0.5
 40
0.6666666666666666
 40
0.6666666666666666
 40
0.6666666666666666
 40
0.6666666666666666
 40
0.8333333333333333
 40
0.8333333333333333
 40
0.8333333333333333
 40
0.8333333333333333
 40
1.0
 40
1.0
 40
1.0
 40
1.0
 10
236.726
 20
182.1284
 30
0.0
 10
236.726
 20
182.1284
 30
0.0
 10
237.004
 20
182.398
 30
0.0
 10
237.004
 20
182.398
 30
0.0
 10
237.004
 20
182.398
 30
0.0
 10
237.004
 20
182.398
 30
0.0
 10
237.5517
 20
182.398
 30
0.0
 10
237.5517
 20
182.398
 30
0.0
 10
237.5517
 20
182.398
 30
0.0
 10
237.5517
 20
182.398
 30
0.0
 10
237.8298
 20
182.1284
 30
0.0
 10
237.8298
 20
182.1284
 30
0.0
 10
237.8298
 20
182.1284
 30
0.0
 10
237.8298
 20
182.1284
 30
0.0
 10
237.8298
 20
181.8503
 30
0.0
 10
237.8298
 20
181.8503
 30
0.0
 10
237.8298
 20
181.8503
 30
0.0
 10
237.8298
 20
181.8503
 30
0.0
 10
237.5517
 20
181.5722
 30
0.0
 10
237.5517
 20
181.5722
 30
0.0
 10
237.5517
 20
181.5722
 30
0.0
 10
237.5517
 20
181.5722
 30
0.0
 10
237.2737
 20
181.5722
 30
0.0
 10
237.2737
 20
181.5722
 30
0.0
  0
SPLINE
  5
1F0
330
1F
100
AcDbEntity
  8
DEFPOINTS
 62
     5
370
    25
100
AcDbSpline
210
0.0
220
0.0
230
1.0
 70
     8
 71
     3
 72
    24
 73
    20
 74
     0
 42
0.0000000001
 43
0.0000000001
 40
0.0
 40
0.0
 40
0.0
 40
0.0
 40
0.2
 40
0.2
 40
0.2
 40
0.2
 40
0.4
 40
0.4
 40
0.4
 40
0.4
 40
0.6000000000000001
 40
0.6000000000000001
 40
0.6000000000000001
 40
0.6000000000000001
 40
0.8
 40
0.8
 40
0.8
 40
0.8
 40
1.0
 40
1.0
 40
1.0
 40
1.0
 10
237.5517
 20
181.5722
 30
0.0
 10
237.5517
 20
181.5722
 30
0.0
 10
237.8298
 20
181.3026
 30
0.0
 10
237.8298
 20
181.3026
 30
0.0
 10
237.8298
 20
181.3026
 30
0.0
 10
237.8298
 20
181.3026
 30
0.0
 10
237.8298
 20
181.0245
 30
0.0
 10
237.8298
 20
181.0245
 30
0.0
 10
237.8298
 20
181.0245
 30
0.0
 10
237.8298
 20
181.0245
 30
0.0
 10
237.5517
 20
180.7464
 30
0.0
 10
237.5517
 20
180.7464
 30
0.0
 10
237.5517
 20
180.7464
 30
0.0
 10
237.5517
 20
180.7464
 30
0.0
 10
237.004
 20
180.7464
 30
0.0
 10
237.004
 20
180.7464
 30
0.0
 10
237.004
 20
180.7464
 30
0.0
 10
237.004
 20
180.7464
 30
0.0
 10
236.726
 20
181.0245
 30
0.0
 10
236.726
 20
181.0245
 30
0.0
  0
SPLINE
  5
1F1
330
1F
100
AcDbEntity
  8
DEFPOINTS
 62
     5
370
    25
100
AcDbSpline
210
0.0
220
0.0
230
1.0
 70
     8
 71
     3
 72
    40
 73
    36
 74
     0
 42
0.0000000001
 43
0.0000000001
 40
0.0
 40
0.0
 40
0.0
 40
0.0
 40
0.1111111111111111
 40
0.1111111111111111
 40
0.1111111111111111
 40
0.1111111111111111
 40
0.2222222222222222
 40
0.2222222222222222
 40
0.2222222222222222
 40
0.2222222222222222
 40
0.3333333333333333
 40
0.3333333333333333
 40
0.3333333333333333
 40
0.3333333333333333
 40
0.4444444444444444
 40
0.4444444444444444
 40
0.4444444444444444
 40
0.4444444444444444
 40
0.5555555555555556
 40
0.5555555555555556
 40
0.5555555555555556
 40
0.5555555555555556
 40
0.6666666666666667
 40
0.6666666666666667
 40
0.6666666666666667
 40
0.6666666666666667
 40
0.7777777777777779
 40
0.7777777777777779
 40
0.7777777777777779
 40
0.7777777777777779
 40
0.8888888888888891
 40
0.8888888888888891
 40
0.8888888888888891
 40
0.8888888888888891
 40
1.0
 40
1.0
 40
1.0
 40
1.0
 10
238.3775
 20
182.1284
 30
0.0
 10
238.3775
 20
182.1284
 30
0.0
 10
238.6556
 20
182.398
 30
0.0
 10
238.6556
 20
182.398
 30
0.0
 10
238.6556
 20
182.398
 30
0.0
 10
238.6556
 20
182.398
 30
0.0
 10
239.2033
 20
182.398
 30
0.0
 10
239.2033
 20
182.398
 30
0.0
 10
239.2033
 20
182.398
 30
0.0
 10
239.2033
 20
182.398
 30
0.0
 10
239.4814
 20
182.1284
 30
0.0
 10
239.4814
 20
182.1284
 30
0.0
 10
239.4814
 20
182.1284
 30
0.0
 10
239.4814
 20
182.1284
 30
0.0
 10
239.4814
 20
181.8503
 30
0.0
 10
239.4814
 20
181.8503
 30
0.0
 10
239.4814
 20
181.8503
 30
0.0
 10
239.4814
 20
181.8503
 30
0.0
 10
239.2033
 20
181.5722
 30
0.0
 10
239.2033
 20
181.5722
 30
0.0
 10
239.2033
 20
181.5722
 30
0.0
 10
239.2033
 20
181.5722
 30
0.0
 10
238.6556
 20
181.5722
 30
0.0
 10
238.6556
 20
181.5722
 30
0.0
 10
238.6556
 20
181.5722
 30
0.0
 10
238.6556
 20
181.5722
 30
0.0
 10
238.3775
 20
181.3026
 30
0.0
 10
238.3775
 20
181.3026
 30
0.0
 10
238.3775
 20
181.3026
 30
0.0
 10
238.3775
 20
181.3026
 30
0.0
 10
238.3775
 20
180.7464
 30
0.0
 10
238.3775
 20
180.7464
 30
0.0
 10
238.3775
 20
180.7464
 30
0.0
 10
238.3775
 20
180.7464
 30
0.0
 10
239.4814
 20
180.7464
 30
0.0
 10
239.4814
 20
180.7464
 30
0.0
  0
SPLINE
  5
1F2
330
1F
100
AcDbEntity
  8
DEFPOINTS
 62
     5
370
    25
100
AcDbSpline
210
0.0
220
0.0
230
1.0
 70
     8
 71
     3
 72
    12
 73
     8
 74
     0
 42
0.0000000001
 43
0.0000000001
 40
0.0
 40
0.0
 40
0.0
 40
0.0
 40
0.5
 40
0.5
 40
0.5
 40
0.5
 40
1.0
 40
1.0
 40
1.0
 40
1.0
 10
240.0291
 20
182.9289
 30
0.0
 10
240.0291
 20
182.9289
 30
0.0
 10
240.8044
 20
182.9289
 30
0.0
 10
240.8044
 20
182.9289
 30
0.0
 10
240.8044
 20
182.9289
 30
0.0
 10
240.8044
 20
182.9289
 30
0.0
 10
240.2229
 20
181.766
 30
0.0
 10
240.2229
 20
181.766
 30
0.0
  0
SPLINE
  5
1F3
330
1F
100
AcDbEntity
  8
DEFPOINTS
 62
     5
370
    25
100
AcDbSpline
210
0.0
220
0.0
230
1.0
 70
    24
 71
     3
 72
     8
 73
     4
 74
     0
 42
0.0000000001
 43
0.0000000001
 40
0.0
 40
0.0
 40
0.0
 40
0.0
 40
1.0
 40
1.0
 40
1.0
 40
1.0
 10
240.0291
 20
181.5722
 30
0.0
 10
240.0291
 20
181.5722
 30
0.0
 10
240.8044
 20
181.5722
 30
0.0
 10
240.8044
 20
181.5722
 30
0.0
  0
SPLINE
  5
1F4
330
1F
100
AcDbEntity
  8
DEFPOINTS
 62
     5
370
    25
100
AcDbSpline
210
0.0
220
0.0
230
1.0
 70
     8
 71
     3
 72
    48
 73
    44
 74
     0
 42
0.0000000001
 43
0.0000000001
 40
0.0
 40
0.0
 40
0.0
 40
0.0
 40
0.0909090909090909
 40
0.0909090909090909
 40
0.0909090909090909
 40
0.0909090909090909
 40
0.1818181818181818
 40
0.1818181818181818
 40
0.1818181818181818
 40
0.1818181818181818
 40
0.2727272727272727
 40
0.2727272727272727
 40
0.2727272727272727
 40
0.2727272727272727
 40
0.3636363636363636
 40
0.3636363636363636
 40
0.3636363636363636
 40
0.3636363636363636
 40
0.4545454545454546
 40
0.4545454545454546
 40
0.4545454545454546
 40
0.4545454545454546
 40
0.5454545454545455
 40
0.5454545454545455
 40
0.5454545454545455
 40
0.5454545454545455
 40
0.6363636363636365
 40
0.6363636363636365
 40
0.6363636363636365
 40
0.6363636363636365
 40
0.7272727272727274
 40
0.7272727272727274
 40
0.7272727272727274
 40
0.7272727272727274
 40
0.8181818181818183
 40
0.8181818181818183
 40
0.8181818181818183
 40
0.8181818181818183
 40
0.9090909090909093
 40
0.9090909090909093
 40
0.9090909090909093
 40
0.9090909090909093
 40
1.0
 40
1.0
 40
1.0
 40
1.0
 10
240.2229
 20
180.224
 30
0.0
 10
240.2229
 20
180.224
 30
0.0
 10
240.0291
 20
180.4178
 30
0.0
 10
240.0291
 20
180.4178
 30
0.0
 10
240.0291
 20
180.4178
 30
0.0
 10
240.0291
 20
180.4178
 30
0.0
 10
240.0291
 20
180.6116
 30
0.0
 10
240.0291
 20
180.6116
 30
0.0
 10
240.0291
 20
180.6116
 30
0.0
 10
240.0291
 20
180.6116
 30
0.0
 10
240.2229
 20
180.8054
 30
0.0
 10
240.2229
 20
180.8054
 30
0.0
 10
240.2229
 20
180.8054
 30
0.0
 10
240.2229
 20
180.8054
 30
0.0
 10
240.6105
 20
180.8054
 30
0.0
 10
240.6105
 20
180.8054
 30
0.0
 10
240.6105
 20
180.8054
 30
0.0
 10
240.6105
 20
180.8054
 30
0.0
 10
240.8044
 20
180.9992
 30
0.0
 10
240.8044
 20
180.9992
 30
0.0
 10
240.8044
 20
180.9992
 30
0.0
 10
240.8044
 20
180.9992
 30
0.0
 10
240.8044
 20
181.193
 30
0.0
 10
240.8044
 20
181.193
 30
0.0
 10
240.8044
 20
181.193
 30
0.0
 10
240.8044
 20
181.193
 30
0.0
 10
240.6105
 20
181.3784
 30
0.0
 10
240.6105
 20
181.3784
 30
0.0
 10
240.6105
 20
181.3784
 30
0.0
 10
240.6105
 20
181.3784
 30
0.0
 10
240.2229
 20
181.3784
 30
0.0
 10
240.2229
 20
181.3784
 30
0.0
 10
240.2229
 20
181.3784
 30
0.0
 10
240.2229
 20
181.3784
 30
0.0
 10
240.0291
 20
181.193
 30
0.0
 10
240.0291
 20
181.193
 30
0.0
 10
240.0291
 20
181.193
 30
0.0
 10
240.0291
 20
181.193
 30
0.0
 10
240.0291
 20
180.9992
 30
0.0
 10
240.0291
 20
180.9992
 30
0.0
 10
240.0291
 20
180.9992
 30
0.0
 10
240.0291
 20
180.9992
 30
0.0
 10
240.2229
 20
180.8054
 30
0.0
 10
240.2229
 20
180.8054
 30
0.0
  0
SPLINE
  5
1F5
330
1F
100
AcDbEntity
  8
DEFPOINTS
 62
     5
370
    25
100
AcDbSpline
210
0.0
220
0.0
230
1.0
 70
     8
 71
     3
 72
    20
 73
    16
 74
     0
 42
0.0000000001
 43
0.0000000001
 40
0.0
 40
0.0
 40
0.0
 40
0.0
 40
0.25
 40
0.25
 40
0.25
 40
0.25
 40
0.5
 40
0.5
 40
0.5
 40
0.5
 40
0.75
 40
0.75
 40
0.75
 40
0.75
 40
1.0
 40
1.0
 40
1.0
 40
1.0
 10
240.6105
 20
180.8054
 30
0.0
 10
240.6105
 20
180.8054
 30
0.0
 10
240.8044
 20
180.6116
 30
0.0
 10
240.8044
 20
180.6116
 30
0.0
 10
240.8044
 20
180.6116
 30
0.0
 10
240.8044
 20
180.6116
 30
0.0
 10
240.8044
 20
180.4178
 30
0.0
 10
240.8044
 20
180.4178
 30
0.0
 10
240.8044
 20
180.4178
 30
0.0
 10
240.8044
 20
180.4178
 30
0.0
 10
240.6105
 20
180.224
 30
0.0
 10
240.6105
 20
180.224
 30
0.0
 10
240.6105
 20
180.224
 30
0.0
 10
240.6105
 20
180.224
 30
0.0
 10
240.2229
 20
180.224
 30
0.0
 10
240.2229
 20
180.224
 30
0.0
  0
SPLINE
  5
1F6
330
1F
100
AcDbEntity
  8
DEFPOINTS
 62
     5
370
    25
100
AcDbSpline
210
0.0
220
0.0
230
1.0
 70
    24
 71
     3
 72
     8
 73
     4
 74
     0
 42
0.0000000001
 43
0.0000000001
 40
0.0
 40
0.0
 40
0.0
 40
0.0
 40
1.0
 40
1.0
 40
1.0
 40
1.0
 10
241.1835
 20
181.8503
 30
0.0
 10
241.1835
 20
181.8503
 30
0.0
 10
241.4616
 20
182.398
 30
0.0
 10
241.4616
 20
182.398
 30
0.0
  0
SPLINE
  5
1F7
330
1F
100
AcDbEntity
  8
DEFPOINTS
 62
     5
370
    25
100
AcDbSpline
210
0.0
220
0.0
230
1.0
 70
    24
 71
     3
 72
     8
 73
     4
 74
     0
 42
0.0000000001
 43
0.0000000001
 40
0.0
 40
0.0
 40
0.0
 40
0.0
 40
1.0
 40
1.0
 40
1.0
 40
1.0
 10
241.7397
 20
182.398
 30
0.0
 10
241.7397
 20
182.398
 30
0.0
 10
241.4616
 20
181.8503
 30
0.0
 10
241.4616
 20
181.8503
 30
0.0
  0
SPLINE
  5
1F8
330
1F
100
AcDbEntity
  8
DEFPOINTS
 62
     5
370
    25
100
AcDbSpline
210
0.0
220
0.0
230
1.0
 70
    24
 71
     3
 72
     8
 73
     4
 74
     0
 42
0.0000000001
 43
0.0000000001
 40
0.0
 40
0.0
 40
0.0
 40
0.0
 40
1.0
 40
1.0
 40
1.0
 40
1.0
 10
215.1037
 20
184.9259
 30
0.0
 10
215.1037
 20
184.9259
 30
0.0
 10
215.1037
 20
184.8838
 30
0.0
 10
215.1037
 20
184.8838
 30
0.0
  0
SPLINE
  5
1F9
330
1F
100
AcDbEntity
  8
DEFPOINTS
 62
     5
370
    25
100
AcDbSpline
210
0.0
220
0.0
230
1.0
 70
    24
 71
     3
 72
     8
 73
     4
 74
     0
 42
0.0000000001
 43
0.0000000001
 40
0.0
 40
0.0
 40
0.0
 40
0.0
 40
1.0
 40
1.0
 40
1.0
 40
1.0
 10
263.3619
 20
184.9259
 30
0.0
 10
263.3619
 20
184.9259
 30
0.0
 10
263.3619
 20
184.8838
 30
0.0
 10
263.3619
 20
184.8838
 30
0.0
  0
SPLINE
  5
1FA
330
1F
100
AcDbEntity
  8
DEFPOINTS
 62
     5
370
    25
100
AcDbSpline
210
0.0
220
0.0
230
1.0
 70
    24
 71
     3
 72
     8
 73
     4
 74
     0
 42
0.0000000001
 43
0.0000000001
 40
0.0
 40
0.0
 40
0.0
 40
0.0
 40
1.0
 40
1.0
 40
1.0
 40
1.0
 10
216.7553
 20
183.8979
 30
0.0
 10
216.7553
 20
183.8979
 30
0.0
 10
261.7103
 20
183.8979
 30
0.0
 10
261.7103
 20
183.8979
 30
0.0
  0
SPLINE
  5
1FB
330
1F
100
AcDbEntity
  8
DEFPOINTS
 62
     5
100
AcDbSpline
210
0.0
220
0.0
230
1.0
 70
    11
 71
     3
 72
    16
 73
    12
 74
     0
 42
0.0000000001
 43
0.0000000001
 40
0.0
 40
0.0
 40
0.0
 40
0.0
 40
0.3333333333333333
 40
0.3333333333333333
 40
0.3333333333333333
 40
0.3333333333333333
 40
0.6666666666666666
 40
0.6666666666666666
 40
0.6666666666666666
 40
0.6666666666666666
 40
1.0
 40
1.0
 40
1.0
 40
1.0
 10
216.7553
 20
184.1676
 30
0.0
 10
216.7553
 20
184.1676
 30
0.0
 10
216.7553
 20
183.6199
 30
0.0
 10
216.7553
 20
183.6199
 30
0.0
 10
216.7553
 20
183.6199
 30
0.0
 10
216.7553
 20
183.6199
 30
0.0
 10
215.1037
 20
183.8979
 30
0.0
 10
215.1037
 20
183.8979
 30
0.0
 10
215.1037
 20
183.8979
 30
0.0
 10
215.1037
 20
183.8979
 30
0.0
 10
216.7553
 20
184.1676
 30
0.0
 10
216.7553
 20
184.1676
 30
0.0
  0
SPLINE
  5
1FC
330
1F
100
AcDbEntity
  8
DEFPOINTS
 62
     5
100
AcDbSpline
210
0.0
220
0.0
230
1.0
 70
    11
 71
     3
 72
    16
 73
    12
 74
     0
 42
0.0000000001
 43
0.0000000001
 40
0.0
 40
0.0
 40
0.0
 40
0.0
 40
0.3333333333333333
 40
0.3333333333333333
 40
0.3333333333333333
 40
0.3333333333333333
 40
0.6666666666666666
 40
0.6666666666666666
 40
0.6666666666666666
 40
0.6666666666666666
 40
1.0
 40
1.0
 40
1.0
 40
1.0
 10
261.7103
 20
184.1676
 30
0.0
 10
261.7103
 20
184.1676
 30
0.0
 10
261.7103
 20
183.6199
 30
0.0
 10
261.7103
 20
183.6199
 30
0.0
 10
261.7103
 20
183.6199
 30
0.0
 10
261.7103
 20
183.6199
 30
0.0
 10
263.3619
 20
183.8979
 30
0.0
 10
263.3619
 20
183.8979
 30
0.0
 10
263.3619
 20
183.8979
 30
0.0
 10
263.3619
 20
183.8979
 30
0.0
 10
261.7103
 20
184.1676
 30
0.0
 10
261.7103
 20
184.1676
 30
0.0
  0
SPLINE
  5
1FD
330
1F
100
AcDbEntity
  8
DEFPOINTS
 62
     5
370
    25
100
AcDbSpline
210
0.0
220
0.0
230
1.0
 70
     8
 71
     3
 72
    40
 73
    36
 74
     0
 42
0.0000000001
 43
0.0000000001
 40
0.0
 40
0.0
 40
0.0
 40
0.0
 40
0.1111111111111111
 40
0.1111111111111111
 40
0.1111111111111111
 40
0.1111111111111111
 40
0.2222222222222222
 40
0.2222222222222222
 40
0.2222222222222222
 40
0.2222222222222222
 40
0.3333333333333333
 40
0.3333333333333333
 40
0.3333333333333333
 40
0.3333333333333333
 40
0.4444444444444444
 40
0.4444444444444444
 40
0.4444444444444444
 40
0.4444444444444444
 40
0.5555555555555556
 40
0.5555555555555556
 40
0.5555555555555556
 40
0.5555555555555556
 40
0.6666666666666667
 40
0.6666666666666667
 40
0.6666666666666667
 40
0.6666666666666667
 40
0.7777777777777779
 40
0.7777777777777779
 40
0.7777777777777779
 40
0.7777777777777779
 40
0.8888888888888891
 40
0.8888888888888891
 40
0.8888888888888891
 40
0.8888888888888891
 40
1.0
 40
1.0
 40
1.0
 40
1.0
 10
237.3074
 20
186.2657
 30
0.0
 10
237.3074
 20
186.2657
 30
0.0
 10
237.577
 20
186.5354
 30
0.0
 10
237.577
 20
186.5354
 30
0.0
 10
237.577
 20
186.5354
 30
0.0
 10
237.577
 20
186.5354
 30
0.0
 10
238.1332
 20
186.5354
 30
0.0
 10
238.1332
 20
186.5354
 30
0.0
 10
238.1332
 20
186.5354
 30
0.0
 10
238.1332
 20
186.5354
 30
0.0
 10
238.4028
 20
186.2657
 30
0.0
 10
238.4028
 20
186.2657
 30
0.0
 10
238.4028
 20
186.2657
 30
0.0
 10
238.4028
 20
186.2657
 30
0.0
 10
238.4028
 20
185.9877
 30
0.0
 10
238.4028
 20
185.9877
 30
0.0
 10
238.4028
 20
185.9877
 30
0.0
 10
238.4028
 20
185.9877
 30
0.0
 10
238.1332
 20
185.7096
 30
0.0
 10
238.1332
 20
185.7096
 30
0.0
 10
238.1332
 20
185.7096
 30
0.0
 10
238.1332
 20
185.7096
 30
0.0
 10
237.577
 20
185.7096
 30
0.0
 10
237.577
 20
185.7096
 30
0.0
 10
237.577
 20
185.7096
 30
0.0
 10
237.577
 20
185.7096
 30
0.0
 10
237.3074
 20
185.44
 30
0.0
 10
237.3074
 20
185.44
 30
0.0
 10
237.3074
 20
185.44
 30
0.0
 10
237.3074
 20
185.44
 30
0.0
 10
237.3074
 20
184.8838
 30
0.0
 10
237.3074
 20
184.8838
 30
0.0
 10
237.3074
 20
184.8838
 30
0.0
 10
237.3074
 20
184.8838
 30
0.0
 10
238.4028
 20
184.8838
 30
0.0
 10
238.4028
 20
184.8838
 30
0.0
  0
SPLINE
  5
1FE
330
1F
100
AcDbEntity
  8
DEFPOINTS
 62
     5
370
    25
100
AcDbSpline
210
0.0
220
0.0
230
1.0
 70
     8
 71
     3
 72
    40
 73
    36
 74
     0
 42
0.0000000001
 43
0.0000000001
 40
0.0
 40
0.0
 40
0.0
 40
0.0
 40
0.1111111111111111
 40
0.1111111111111111
 40
0.1111111111111111
 40
0.1111111111111111
 40
0.2222222222222222
 40
0.2222222222222222
 40
0.2222222222222222
 40
0.2222222222222222
 40
0.3333333333333333
 40
0.3333333333333333
 40
0.3333333333333333
 40
0.3333333333333333
 40
0.4444444444444444
 40
0.4444444444444444
 40
0.4444444444444444
 40
0.4444444444444444
 40
0.5555555555555556
 40
0.5555555555555556
 40
0.5555555555555556
 40
0.5555555555555556
 40
0.6666666666666667
 40
0.6666666666666667
 40
0.6666666666666667
 40
0.6666666666666667
 40
0.7777777777777779
 40
0.7777777777777779
 40
0.7777777777777779
 40
0.7777777777777779
 40
0.8888888888888891
 40
0.8888888888888891
 40
0.8888888888888891
 40
0.8888888888888891
 40
1.0
 40
1.0
 40
1.0
 40
1.0
 10
239.2286
 20
184.8838
 30
0.0
 10
239.2286
 20
184.8838
 30
0.0
 10
239.5067
 20
184.8838
 30
0.0
 10
239.5067
 20
184.8838
 30
0.0
 10
239.5067
 20
184.8838
 30
0.0
 10
239.5067
 20
184.8838
 30
0.0
 10
240.0544
 20
185.44
 30
0.0
 10
240.0544
 20
185.44
 30
0.0
 10
240.0544
 20
185.44
 30
0.0
 10
240.0544
 20
185.44
 30
0.0
 10
240.0544
 20
186.2657
 30
0.0
 10
240.0544
 20
186.2657
 30
0.0
 10
240.0544
 20
186.2657
 30
0.0
 10
240.0544
 20
186.2657
 30
0.0
 10
239.7847
 20
186.5354
 30
0.0
 10
239.7847
 20
186.5354
 30
0.0
 10
239.7847
 20
186.5354
 30
0.0
 10
239.7847
 20
186.5354
 30
0.0
 10
239.2286
 20
186.5354
 30
0.0
 10
239.2286
 20
186.5354
 30
0.0
 10
239.2286
 20
186.5354
 30
0.0
 10
239.2286
 20
186.5354
 30
0.0
 10
238.959
 20
186.2657
 30
0.0
 10
238.959
 20
186.2657
 30
0.0
 10
238.959
 20
186.2657
 30
0.0
 10
238.959
 20
186.2657
 30
0.0
 10
238.959
 20
185.9877
 30
0.0
 10
238.959
 20
185.9877
 30
0.0
 10
238.959
 20
185.9877
 30
0.0
 10
238.959
 20
185.9877
 30
0.0
 10
239.2286
 20
185.7096
 30
0.0
 10
239.2286
 20
185.7096
 30
0.0
 10
239.2286
 20
185.7096
 30
0.0
 10
239.2286
 20
185.7096
 30
0.0
 10
240.0544
 20
185.7096
 30
0.0
 10
240.0544
 20
185.7096
 30
0.0
  0
SPLINE
  5
1FF
330
1F
100
AcDbEntity
  8
DEFPOINTS
 62
     5
370
    25
100
AcDbSpline
210
0.0
220
0.0
230
1.0
 70
    24
 71
     3
 72
     8
 73
     4
 74
     0
 42
0.0000000001
 43
0.0000000001
 40
0.0
 40
0.0
 40
0.0
 40
0.0
 40
1.0
 40
1.0
 40
1.0
 40
1.0
 10
240.6105
 20
185.9877
 30
0.0
 10
240.6105
 20
185.9877
 30
0.0
 10
240.8886
 20
186.5354
 30
0.0
 10
240.8886
 20
186.5354
 30
0.0
  0
SPLINE
  5
200
330
1F
100
AcDbEntity
  8
DEFPOINTS
 62
     5
370
    25
100
AcDbSpline
210
0.0
220
0.0
230
1.0
 70
    24
 71
     3
 72
     8
 73
     4
 74
     0
 42
0.0000000001
 43
0.0000000001
 40
0.0
 40
0.0
 40
0.0
 40
0.0
 40
1.0
 40
1.0
 40
1.0
 40
1.0
 10
241.1583
 20
186.5354
 30
0.0
 10
241.1583
 20
186.5354
 30
0.0
 10
240.8886
 20
185.9877
 30
0.0
 10
240.8886
 20
185.9877
 30
0.0
  0
SPLINE
  5
201
330
1F
100
AcDbEntity
  8
DEFPOINTS
370
    25
100
AcDbSpline
210
0.0
220
0.0
230
1.0
 70
     8
 71
     3
 72
     8
 73
     4
 74
     0
 42
0.0000000001
 43
0.0000000001
 40
0.0
 40
0.0
 40
0.0
 40
0.0
 40
1.0
 40
1.0
 40
1.0
 40
1.0
 10
262.5361
 20
192.4002
 30
0.0
 10
263.0404
 20
192.4208
 30
0.0
 10
263.4184
 20
192.7929
 30
0.0
 10
263.4293
 20
193.2934
 30
0.0
  0
SPLINE
  5
202
330
1F
100
AcDbEntity
  8
DEFPOINTS
370
    25
100
AcDbSpline
210
0.0
220
0.0
230
1.0
 70
     8
 71
     3
 72
     8
 73
     4
 74
     0
 42
0.0000000001
 43
0.0000000001
 40
0.0
 40
0.0
 40
0.0
 40
0.0
 40
1.0
 40
1.0
 40
1.0
 40
1.0
 10
262.4687
 20
192.476
 30
0.0
 10
262.958
 20
192.4774
 30
0.0
 10
263.3668
 20
192.8769
 30
0.0
 10
263.3619
 20
193.3692
 30
0.0
  0
SPLINE
  5
203
330
1F
100
AcDbEntity
  8
DEFPOINTS
370
    25
100
AcDbSpline
210
0.0
220
0.0
230
1.0
 70
     8
 71
     3
 72
     8
 73
     4
 74
     0
 42
0.0000000001
 43
0.0000000001
 40
0.0
 40
0.0
 40
0.0
 40
0.0
 40
1.0
 40
1.0
 40
1.0
 40
1.0
 10
215.0363
 20
193.2934
 30
0.0
 10
215.044
 20
192.7868
 30
0.0
 10
215.4228
 20
192.4283
 30
0.0
 10
215.9211
 20
192.4002
 30
0.0
  0
SPLINE
  5
204
330
1F
100
AcDbEntity
  8
DEFPOINTS
370
    25
100
AcDbSpline
210
0.0
220
0.0
230
1.0
 70
     8
 71
     3
 72
     8
 73
     4
 74
     0
 42
0.0000000001
 43
0.0000000001
 40
0.0
 40
0.0
 40
0.0
 40
0.0
 40
1.0
 40
1.0
 40
1.0
 40
1.0
 10
215.1037
 20
193.3692
 30
0.0
 10
215.0967
 20
192.8833
 30
0.0
 10
215.511
 20
192.469
 30
0.0
 10
215.9969
 20
192.476
 30
0.0
  0
SPLINE
  5
205
330
1F
100
AcDbEntity
  8
DEFPOINTS
370
    25
100
AcDbSpline
210
0.0
220
0.0
230
1.0
 70
     8
 71
     3
 72
     8
 73
     4
 74
     0
 42
0.0000000001
 43
0.0000000001
 40
0.0
 40
0.0
 40
0.0
 40
0.0
 40
1.0
 40
1.0
 40
1.0
 40
1.0
 10
263.4293
 20
215.8088
 30
0.0
 10
263.4363
 20
216.2947
 30
0.0
 10
263.022
 20
216.709
 30
0.0
 10
262.5361
 20
216.702
 30
0.0
  0
SPLINE
  5
206
330
1F
100
AcDbEntity
  8
DEFPOINTS
370
    25
100
AcDbSpline
210
0.0
220
0.0
230
1.0
 70
     8
 71
     3
 72
     8
 73
     4
 74
     0
 42
0.0000000001
 43
0.0000000001
 40
0.0
 40
0.0
 40
0.0
 40
0.0
 40
1.0
 40
1.0
 40
1.0
 40
1.0
 10
263.3619
 20
215.7414
 30
0.0
 10
263.3549
 20
216.2418
 30
0.0
 10
262.9691
 20
216.6276
 30
0.0
 10
262.4687
 20
216.6346
 30
0.0
  0
SPLINE
  5
207
330
1F
100
AcDbEntity
  8
DEFPOINTS
370
    25
100
AcDbSpline
210
0.0
220
0.0
230
1.0
 70
     8
 71
     3
 72
     8
 73
     4
 74
     0
 42
0.0000000001
 43
0.0000000001
 40
0.0
 40
0.0
 40
0.0
 40
0.0
 40
1.0
 40
1.0
 40
1.0
 40
1.0
 10
215.9211
 20
216.702
 30
0.0
 10
215.4352
 20
216.6975
 30
0.0
 10
215.0304
 20
216.3052
 30
0.0
 10
215.0363
 20
215.8088
 30
0.0
  0
SPLINE
  5
208
330
1F
100
AcDbEntity
  8
DEFPOINTS
370
    25
100
AcDbSpline
210
0.0
220
0.0
230
1.0
 70
     8
 71
     3
 72
     8
 73
     4
 74
     0
 42
0.0000000001
 43
0.0000000001
 40
0.0
 40
0.0
 40
0.0
 40
0.0
 40
1.0
 40
1.0
 40
1.0
 40
1.0
 10
215.9969
 20
216.6346
 30
0.0
 10
215.5044
 20
216.6395
 30
0.0
 10
215.1052
 20
216.2307
 30
0.0
 10
215.1037
 20
215.7414
 30
0.0
  0
SPLINE
  5
209
330
1F
100
AcDbEntity
  8
DEFPOINTS
370
    25
100
AcDbSpline
210
0.0
220
0.0
230
1.0
 70
    24
 71
     3
 72
     8
 73
     4
 74
     0
 42
0.0000000001
 43
0.0000000001
 40
0.0
 40
0.0
 40
0.0
 40
0.0
 40
1.0
 40
1.0
 40
1.0
 40
1.0
 10
215.9969
 20
216.6346
 30
0.0
 10
215.9969
 20
216.6346
 30
0.0
 10
262.4687
 20
216.6346
 30
0.0
 10
262.4687
 20
216.6346
 30
0.0
  0
SPLINE
  5
20A
330
1F
100
AcDbEntity
  8
DEFPOINTS
370
    25
100
AcDbSpline
210
0.0
220
0.0
230
1.0
 70
    24
 71
     3
 72
     8
 73
     4
 74
     0
 42
0.0000000001
 43
0.0000000001
 40
0.0
 40
0.0
 40
0.0
 40
0.0
 40
1.0
 40
1.0
 40
1.0
 40
1.0
 10
215.1037
 20
193.3692
 30
0.0
 10
215.1037
 20
193.3692
 30
0.0
 10
215.1037
 20
215.7414
 30
0.0
 10
215.1037
 20
215.7414
 30
0.0
  0
SPLINE
  5
20B
330
1F
100
AcDbEntity
  8
DEFPOINTS
370
    25
100
AcDbSpline
210
0.0
220
0.0
230
1.0
 70
    24
 71
     3
 72
     8
 73
     4
 74
     0
 42
0.0000000001
 43
0.0000000001
 40
0.0
 40
0.0
 40
0.0
 40
0.0
 40
1.0
 40
1.0
 40
1.0
 40
1.0
 10
212.1292
 20
188.4903
 30
0.0
 10
212.1292
 20
188.4903
 30
0.0
 10
266.3364
 20
188.4903
 30
0.0
 10
266.3364
 20
188.4903
 30
0.0
  0
SPLINE
  5
20C
330
1F
100
AcDbEntity
  8
DEFPOINTS
370
    25
100
AcDbSpline
210
0.0
220
0.0
230
1.0
 70
    24
 71
     3
 72
     8
 73
     4
 74
     0
 42
0.0000000001
 43
0.0000000001
 40
0.0
 40
0.0
 40
0.0
 40
0.0
 40
1.0
 40
1.0
 40
1.0
 40
1.0
 10
212.2135
 20
188.5662
 30
0.0
 10
212.2135
 20
188.5662
 30
0.0
 10
213.233
 20
190.993
 30
0.0
 10
213.233
 20
190.993
 30
0.0
  0
SPLINE
  5
20D
330
1F
100
AcDbEntity
  8
DEFPOINTS
370
    25
100
AcDbSpline
210
0.0
220
0.0
230
1.0
 70
    24
 71
     3
 72
     8
 73
     4
 74
     0
 42
0.0000000001
 43
0.0000000001
 40
0.0
 40
0.0
 40
0.0
 40
0.0
 40
1.0
 40
1.0
 40
1.0
 40
1.0
 10
265.2242
 20
190.9845
 30
0.0
 10
265.2242
 20
190.9845
 30
0.0
 10
266.2522
 20
188.5662
 30
0.0
 10
266.2522
 20
188.5662
 30
0.0
  0
SPLINE
  5
20E
330
1F
100
AcDbEntity
  8
DEFPOINTS
370
    25
100
AcDbSpline
210
0.0
220
0.0
230
1.0
 70
    24
 71
     3
 72
     8
 73
     4
 74
     0
 42
0.0000000001
 43
0.0000000001
 40
0.0
 40
0.0
 40
0.0
 40
0.0
 40
1.0
 40
1.0
 40
1.0
 40
1.0
 10
265.2242
 20
218.7159
 30
0.0
 10
265.2242
 20
218.7159
 30
0.0
 10
265.2242
 20
216.2133
 30
0.0
 10
265.2242
 20
216.2133
 30
0.0
  0
SPLINE
  5
20F
330
1F
100
AcDbEntity
  8
DEFPOINTS
370
    25
100
AcDbSpline
210
0.0
220
0.0
230
1.0
 70
    24
 71
     3
 72
     8
 73
     4
 74
     0
 42
0.0000000001
 43
0.0000000001
 40
0.0
 40
0.0
 40
0.0
 40
0.0
 40
1.0
 40
1.0
 40
1.0
 40
1.0
 10
265.2242
 20
215.1853
 30
0.0
 10
265.2242
 20
215.1853
 30
0.0
 10
265.2242
 20
213.1124
 30
0.0
 10
265.2242
 20
213.1124
 30
0.0
  0
SPLINE
  5
210
330
1F
100
AcDbEntity
  8
DEFPOINTS
370
    25
100
AcDbSpline
210
0.0
220
0.0
230
1.0
 70
    24
 71
     3
 72
     8
 73
     4
 74
     0
 42
0.0000000001
 43
0.0000000001
 40
0.0
 40
0.0
 40
0.0
 40
0.0
 40
1.0
 40
1.0
 40
1.0
 40
1.0
 10
265.2242
 20
212.0843
 30
0.0
 10
265.2242
 20
212.0843
 30
0.0
 10
265.2242
 20
210.0198
 30
0.0
 10
265.2242
 20
210.0198
 30
0.0
  0
SPLINE
  5
211
330
1F
100
AcDbEntity
  8
DEFPOINTS
370
    25
100
AcDbSpline
210
0.0
220
0.0
230
1.0
 70
    24
 71
     3
 72
     8
 73
     4
 74
     0
 42
0.0000000001
 43
0.0000000001
 40
0.0
 40
0.0
 40
0.0
 40
0.0
 40
1.0
 40
1.0
 40
1.0
 40
1.0
 10
265.2242
 20
208.9834
 30
0.0
 10
265.2242
 20
208.9834
 30
0.0
 10
265.2242
 20
206.9189
 30
0.0
 10
265.2242
 20
206.9189
 30
0.0
  0
SPLINE
  5
212
330
1F
100
AcDbEntity
  8
DEFPOINTS
370
    25
100
AcDbSpline
210
0.0
220
0.0
230
1.0
 70
    24
 71
     3
 72
     8
 73
     4
 74
     0
 42
0.0000000001
 43
0.0000000001
 40
0.0
 40
0.0
 40
0.0
 40
0.0
 40
1.0
 40
1.0
 40
1.0
 40
1.0
 10
265.2242
 20
205.8825
 30
0.0
 10
265.2242
 20
205.8825
 30
0.0
 10
265.2242
 20
203.818
 30
0.0
 10
265.2242
 20
203.818
 30
0.0
  0
SPLINE
  5
213
330
1F
100
AcDbEntity
  8
DEFPOINTS
370
    25
100
AcDbSpline
210
0.0
220
0.0
230
1.0
 70
    24
 71
     3
 72
     8
 73
     4
 74
     0
 42
0.0000000001
 43
0.0000000001
 40
0.0
 40
0.0
 40
0.0
 40
0.0
 40
1.0
 40
1.0
 40
1.0
 40
1.0
 10
265.2242
 20
202.7816
 30
0.0
 10
265.2242
 20
202.7816
 30
0.0
 10
265.2242
 20
200.7171
 30
0.0
 10
265.2242
 20
200.7171
 30
0.0
  0
SPLINE
  5
214
330
1F
100
AcDbEntity
  8
DEFPOINTS
370
    25
100
AcDbSpline
210
0.0
220
0.0
230
1.0
 70
    24
 71
     3
 72
     8
 73
     4
 74
     0
 42
0.0000000001
 43
0.0000000001
 40
0.0
 40
0.0
 40
0.0
 40
0.0
 40
1.0
 40
1.0
 40
1.0
 40
1.0
 10
265.2242
 20
199.6891
 30
0.0
 10
265.2242
 20
199.6891
 30
0.0
 10
265.2242
 20
197.6246
 30
0.0
 10
265.2242
 20
197.6246
 30
0.0
  0
SPLINE
  5
215
330
1F
100
AcDbEntity
  8
DEFPOINTS
370
    25
100
AcDbSpline
210
0.0
220
0.0
230
1.0
 70
    24
 71
     3
 72
     8
 73
     4
 74
     0
 42
0.0000000001
 43
0.0000000001
 40
0.0
 40
0.0
 40
0.0
 40
0.0
 40
1.0
 40
1.0
 40
1.0
 40
1.0
 10
265.2242
 20
196.5881
 30
0.0
 10
265.2242
 20
196.5881
 30
0.0
 10
265.2242
 20
194.5236
 30
0.0
 10
265.2242
 20
194.5236
 30
0.0
  0
SPLINE
  5
216
330
1F
100
AcDbEntity
  8
DEFPOINTS
370
    25
100
AcDbSpline
210
0.0
220
0.0
230
1.0
 70
    24
 71
     3
 72
     8
 73
     4
 74
     0
 42
0.0000000001
 43
0.0000000001
 40
0.0
 40
0.0
 40
0.0
 40
0.0
 40
1.0
 40
1.0
 40
1.0
 40
1.0
 10
265.2242
 20
193.4872
 30
0.0
 10
265.2242
 20
193.4872
 30
0.0
 10
265.2242
 20
190.9845
 30
0.0
 10
265.2242
 20
190.9845
 30
0.0
  0
SPLINE
  5
217
330
1F
100
AcDbEntity
  8
DEFPOINTS
370
    25
100
AcDbSpline
210
0.0
220
0.0
230
1.0
 70
    24
 71
     3
 72
     8
 73
     4
 74
     0
 42
0.0000000001
 43
0.0000000001
 40
0.0
 40
0.0
 40
0.0
 40
0.0
 40
1.0
 40
1.0
 40
1.0
 40
1.0
 10
213.233
 20
190.993
 30
0.0
 10
213.233
 20
190.993
 30
0.0
 10
213.233
 20
193.5293
 30
0.0
 10
213.233
 20
193.5293
 30
0.0
  0
SPLINE
  5
218
330
1F
100
AcDbEntity
  8
DEFPOINTS
370
    25
100
AcDbSpline
210
0.0
220
0.0
230
1.0
 70
    24
 71
     3
 72
     8
 73
     4
 74
     0
 42
0.0000000001
 43
0.0000000001
 40
0.0
 40
0.0
 40
0.0
 40
0.0
 40
1.0
 40
1.0
 40
1.0
 40
1.0
 10
213.233
 20
194.5658
 30
0.0
 10
213.233
 20
194.5658
 30
0.0
 10
213.233
 20
196.6303
 30
0.0
 10
213.233
 20
196.6303
 30
0.0
  0
SPLINE
  5
219
330
1F
100
AcDbEntity
  8
DEFPOINTS
370
    25
100
AcDbSpline
210
0.0
220
0.0
230
1.0
 70
    24
 71
     3
 72
     8
 73
     4
 74
     0
 42
0.0000000001
 43
0.0000000001
 40
0.0
 40
0.0
 40
0.0
 40
0.0
 40
1.0
 40
1.0
 40
1.0
 40
1.0
 10
213.233
 20
197.6667
 30
0.0
 10
213.233
 20
197.6667
 30
0.0
 10
213.233
 20
199.7312
 30
0.0
 10
213.233
 20
199.7312
 30
0.0
  0
SPLINE
  5
21A
330
1F
100
AcDbEntity
  8
DEFPOINTS
370
    25
100
AcDbSpline
210
0.0
220
0.0
230
1.0
 70
    24
 71
     3
 72
     8
 73
     4
 74
     0
 42
0.0000000001
 43
0.0000000001
 40
0.0
 40
0.0
 40
0.0
 40
0.0
 40
1.0
 40
1.0
 40
1.0
 40
1.0
 10
213.233
 20
200.7676
 30
0.0
 10
213.233
 20
200.7676
 30
0.0
 10
213.233
 20
202.8321
 30
0.0
 10
213.233
 20
202.8321
 30
0.0
  0
SPLINE
  5
21B
330
1F
100
AcDbEntity
  8
DEFPOINTS
370
    25
100
AcDbSpline
210
0.0
220
0.0
230
1.0
 70
    24
 71
     3
 72
     8
 73
     4
 74
     0
 42
0.0000000001
 43
0.0000000001
 40
0.0
 40
0.0
 40
0.0
 40
0.0
 40
1.0
 40
1.0
 40
1.0
 40
1.0
 10
213.233
 20
203.8601
 30
0.0
 10
213.233
 20
203.8601
 30
0.0
 10
213.233
 20
205.9246
 30
0.0
 10
213.233
 20
205.9246
 30
0.0
  0
SPLINE
  5
21C
330
1F
100
AcDbEntity
  8
DEFPOINTS
370
    25
100
AcDbSpline
210
0.0
220
0.0
230
1.0
 70
    24
 71
     3
 72
     8
 73
     4
 74
     0
 42
0.0000000001
 43
0.0000000001
 40
0.0
 40
0.0
 40
0.0
 40
0.0
 40
1.0
 40
1.0
 40
1.0
 40
1.0
 10
213.233
 20
206.9611
 30
0.0
 10
213.233
 20
206.9611
 30
0.0
 10
213.233
 20
209.0256
 30
0.0
 10
213.233
 20
209.0256
 30
0.0
  0
SPLINE
  5
21D
330
1F
100
AcDbEntity
  8
DEFPOINTS
370
    25
100
AcDbSpline
210
0.0
220
0.0
230
1.0
 70
    24
 71
     3
 72
     8
 73
     4
 74
     0
 42
0.0000000001
 43
0.0000000001
 40
0.0
 40
0.0
 40
0.0
 40
0.0
 40
1.0
 40
1.0
 40
1.0
 40
1.0
 10
213.233
 20
210.062
 30
0.0
 10
213.233
 20
210.062
 30
0.0
 10
213.233
 20
212.1265
 30
0.0
 10
213.233
 20
212.1265
 30
0.0
  0
SPLINE
  5
21E
330
1F
100
AcDbEntity
  8
DEFPOINTS
370
    25
100
AcDbSpline
210
0.0
220
0.0
230
1.0
 70
    24
 71
     3
 72
     8
 73
     4
 74
     0
 42
0.0000000001
 43
0.0000000001
 40
0.0
 40
0.0
 40
0.0
 40
0.0
 40
1.0
 40
1.0
 40
1.0
 40
1.0
 10
213.233
 20
213.1629
 30
0.0
 10
213.233
 20
213.1629
 30
0.0
 10
213.233
 20
215.2274
 30
0.0
 10
213.233
 20
215.2274
 30
0.0
  0
SPLINE
  5
21F
330
1F
100
AcDbEntity
  8
DEFPOINTS
370
    25
100
AcDbSpline
210
0.0
220
0.0
230
1.0
 70
    24
 71
     3
 72
     8
 73
     4
 74
     0
 42
0.0000000001
 43
0.0000000001
 40
0.0
 40
0.0
 40
0.0
 40
0.0
 40
1.0
 40
1.0
 40
1.0
 40
1.0
 10
213.233
 20
216.2554
 30
0.0
 10
213.233
 20
216.2554
 30
0.0
 10
213.233
 20
218.8002
 30
0.0
 10
213.233
 20
218.8002
 30
0.0
  0
SPLINE
  5
220
330
1F
100
AcDbEntity
  8
DEFPOINTS
370
    25
100
AcDbSpline
210
0.0
220
0.0
230
1.0
 70
    24
 71
     3
 72
     8
 73
     4
 74
     0
 42
0.0000000001
 43
0.0000000001
 40
0.0
 40
0.0
 40
0.0
 40
0.0
 40
1.0
 40
1.0
 40
1.0
 40
1.0
 10
212.2135
 20
188.5662
 30
0.0
 10
212.2135
 20
188.5662
 30
0.0
 10
213.233
 20
190.993
 30
0.0
 10
213.233
 20
190.993
 30
0.0
  0
SPLINE
  5
221
330
1F
100
AcDbEntity
  8
DEFPOINTS
370
    25
100
AcDbSpline
210
0.0
220
0.0
230
1.0
 70
    24
 71
     3
 72
     8
 73
     4
 74
     0
 42
0.0000000001
 43
0.0000000001
 40
0.0
 40
0.0
 40
0.0
 40
0.0
 40
1.0
 40
1.0
 40
1.0
 40
1.0
 10
213.233
 20
190.9845
 30
0.0
 10
213.233
 20
190.9845
 30
0.0
 10
215.4745
 20
190.9845
 30
0.0
 10
215.4745
 20
190.9845
 30
0.0
  0
SPLINE
  5
222
330
1F
100
AcDbEntity
  8
DEFPOINTS
370
    25
100
AcDbSpline
210
0.0
220
0.0
230
1.0
 70
    24
 71
     3
 72
     8
 73
     4
 74
     0
 42
0.0000000001
 43
0.0000000001
 40
0.0
 40
0.0
 40
0.0
 40
0.0
 40
1.0
 40
1.0
 40
1.0
 40
1.0
 10
216.5025
 20
190.9845
 30
0.0
 10
216.5025
 20
190.9845
 30
0.0
 10
218.567
 20
190.9845
 30
0.0
 10
218.567
 20
190.9845
 30
0.0
  0
SPLINE
  5
223
330
1F
100
AcDbEntity
  8
DEFPOINTS
370
    25
100
AcDbSpline
210
0.0
220
0.0
230
1.0
 70
    24
 71
     3
 72
     8
 73
     4
 74
     0
 42
0.0000000001
 43
0.0000000001
 40
0.0
 40
0.0
 40
0.0
 40
0.0
 40
1.0
 40
1.0
 40
1.0
 40
1.0
 10
219.6034
 20
190.9845
 30
0.0
 10
219.6034
 20
190.9845
 30
0.0
 10
221.6679
 20
190.9845
 30
0.0
 10
221.6679
 20
190.9845
 30
0.0
  0
SPLINE
  5
224
330
1F
100
AcDbEntity
  8
DEFPOINTS
370
    25
100
AcDbSpline
210
0.0
220
0.0
230
1.0
 70
    24
 71
     3
 72
     8
 73
     4
 74
     0
 42
0.0000000001
 43
0.0000000001
 40
0.0
 40
0.0
 40
0.0
 40
0.0
 40
1.0
 40
1.0
 40
1.0
 40
1.0
 10
222.7044
 20
190.9845
 30
0.0
 10
222.7044
 20
190.9845
 30
0.0
 10
224.7688
 20
190.9845
 30
0.0
 10
224.7688
 20
190.9845
 30
0.0
  0
SPLINE
  5
225
330
1F
100
AcDbEntity
  8
DEFPOINTS
370
    25
100
AcDbSpline
210
0.0
220
0.0
230
1.0
 70
    24
 71
     3
 72
     8
 73
     4
 74
     0
 42
0.0000000001
 43
0.0000000001
 40
0.0
 40
0.0
 40
0.0
 40
0.0
 40
1.0
 40
1.0
 40
1.0
 40
1.0
 10
225.8053
 20
190.9845
 30
0.0
 10
225.8053
 20
190.9845
 30
0.0
 10
227.8698
 20
190.9845
 30
0.0
 10
227.8698
 20
190.9845
 30
0.0
  0
SPLINE
  5
226
330
1F
100
AcDbEntity
  8
DEFPOINTS
370
    25
100
AcDbSpline
210
0.0
220
0.0
230
1.0
 70
    24
 71
     3
 72
     8
 73
     4
 74
     0
 42
0.0000000001
 43
0.0000000001
 40
0.0
 40
0.0
 40
0.0
 40
0.0
 40
1.0
 40
1.0
 40
1.0
 40
1.0
 10
228.8978
 20
190.9845
 30
0.0
 10
228.8978
 20
190.9845
 30
0.0
 10
230.9623
 20
190.9845
 30
0.0
 10
230.9623
 20
190.9845
 30
0.0
  0
SPLINE
  5
227
330
1F
100
AcDbEntity
  8
DEFPOINTS
370
    25
100
AcDbSpline
210
0.0
220
0.0
230
1.0
 70
    24
 71
     3
 72
     8
 73
     4
 74
     0
 42
0.0000000001
 43
0.0000000001
 40
0.0
 40
0.0
 40
0.0
 40
0.0
 40
1.0
 40
1.0
 40
1.0
 40
1.0
 10
231.9987
 20
190.9845
 30
0.0
 10
231.9987
 20
190.9845
 30
0.0
 10
234.0632
 20
190.9845
 30
0.0
 10
234.0632
 20
190.9845
 30
0.0
  0
SPLINE
  5
228
330
1F
100
AcDbEntity
  8
DEFPOINTS
370
    25
100
AcDbSpline
210
0.0
220
0.0
230
1.0
 70
    24
 71
     3
 72
     8
 73
     4
 74
     0
 42
0.0000000001
 43
0.0000000001
 40
0.0
 40
0.0
 40
0.0
 40
0.0
 40
1.0
 40
1.0
 40
1.0
 40
1.0
 10
235.0996
 20
190.9845
 30
0.0
 10
235.0996
 20
190.9845
 30
0.0
 10
237.1641
 20
190.9845
 30
0.0
 10
237.1641
 20
190.9845
 30
0.0
  0
SPLINE
  5
229
330
1F
100
AcDbEntity
  8
DEFPOINTS
370
    25
100
AcDbSpline
210
0.0
220
0.0
230
1.0
 70
    24
 71
     3
 72
     8
 73
     4
 74
     0
 42
0.0000000001
 43
0.0000000001
 40
0.0
 40
0.0
 40
0.0
 40
0.0
 40
1.0
 40
1.0
 40
1.0
 40
1.0
 10
238.2006
 20
190.9845
 30
0.0
 10
238.2006
 20
190.9845
 30
0.0
 10
240.2651
 20
190.9845
 30
0.0
 10
240.2651
 20
190.9845
 30
0.0
  0
SPLINE
  5
22A
330
1F
100
AcDbEntity
  8
DEFPOINTS
370
    25
100
AcDbSpline
210
0.0
220
0.0
230
1.0
 70
    24
 71
     3
 72
     8
 73
     4
 74
     0
 42
0.0000000001
 43
0.0000000001
 40
0.0
 40
0.0
 40
0.0
 40
0.0
 40
1.0
 40
1.0
 40
1.0
 40
1.0
 10
241.2931
 20
190.9845
 30
0.0
 10
241.2931
 20
190.9845
 30
0.0
 10
243.366
 20
190.9845
 30
0.0
 10
243.366
 20
190.9845
 30
0.0
  0
SPLINE
  5
22B
330
1F
100
AcDbEntity
  8
DEFPOINTS
370
    25
100
AcDbSpline
210
0.0
220
0.0
230
1.0
 70
    24
 71
     3
 72
     8
 73
     4
 74
     0
 42
0.0000000001
 43
0.0000000001
 40
0.0
 40
0.0
 40
0.0
 40
0.0
 40
1.0
 40
1.0
 40
1.0
 40
1.0
 10
244.394
 20
190.9845
 30
0.0
 10
244.394
 20
190.9845
 30
0.0
 10
246.4585
 20
190.9845
 30
0.0
 10
246.4585
 20
190.9845
 30
0.0
  0
SPLINE
  5
22C
330
1F
100
AcDbEntity
  8
DEFPOINTS
370
    25
100
AcDbSpline
210
0.0
220
0.0
230
1.0
 70
    24
 71
     3
 72
     8
 73
     4
 74
     0
 42
0.0000000001
 43
0.0000000001
 40
0.0
 40
0.0
 40
0.0
 40
0.0
 40
1.0
 40
1.0
 40
1.0
 40
1.0
 10
247.4949
 20
190.9845
 30
0.0
 10
247.4949
 20
190.9845
 30
0.0
 10
249.5594
 20
190.9845
 30
0.0
 10
249.5594
 20
190.9845
 30
0.0
  0
SPLINE
  5
22D
330
1F
100
AcDbEntity
  8
DEFPOINTS
370
    25
100
AcDbSpline
210
0.0
220
0.0
230
1.0
 70
    24
 71
     3
 72
     8
 73
     4
 74
     0
 42
0.0000000001
 43
0.0000000001
 40
0.0
 40
0.0
 40
0.0
 40
0.0
 40
1.0
 40
1.0
 40
1.0
 40
1.0
 10
250.5958
 20
190.9845
 30
0.0
 10
250.5958
 20
190.9845
 30
0.0
 10
252.6603
 20
190.9845
 30
0.0
 10
252.6603
 20
190.9845
 30
0.0
  0
SPLINE
  5
22E
330
1F
100
AcDbEntity
  8
DEFPOINTS
370
    25
100
AcDbSpline
210
0.0
220
0.0
230
1.0
 70
    24
 71
     3
 72
     8
 73
     4
 74
     0
 42
0.0000000001
 43
0.0000000001
 40
0.0
 40
0.0
 40
0.0
 40
0.0
 40
1.0
 40
1.0
 40
1.0
 40
1.0
 10
253.6968
 20
190.9845
 30
0.0
 10
253.6968
 20
190.9845
 30
0.0
 10
255.7613
 20
190.9845
 30
0.0
 10
255.7613
 20
190.9845
 30
0.0
  0
SPLINE
  5
22F
330
1F
100
AcDbEntity
  8
DEFPOINTS
370
    25
100
AcDbSpline
210
0.0
220
0.0
230
1.0
 70
    24
 71
     3
 72
     8
 73
     4
 74
     0
 42
0.0000000001
 43
0.0000000001
 40
0.0
 40
0.0
 40
0.0
 40
0.0
 40
1.0
 40
1.0
 40
1.0
 40
1.0
 10
256.7893
 20
190.9845
 30
0.0
 10
256.7893
 20
190.9845
 30
0.0
 10
258.8538
 20
190.9845
 30
0.0
 10
258.8538
 20
190.9845
 30
0.0
  0
SPLINE
  5
230
330
1F
100
AcDbEntity
  8
DEFPOINTS
370
    25
100
AcDbSpline
210
0.0
220
0.0
230
1.0
 70
    24
 71
     3
 72
     8
 73
     4
 74
     0
 42
0.0000000001
 43
0.0000000001
 40
0.0
 40
0.0
 40
0.0
 40
0.0
 40
1.0
 40
1.0
 40
1.0
 40
1.0
 10
259.8902
 20
190.9845
 30
0.0
 10
259.8902
 20
190.9845
 30
0.0
 10
261.9547
 20
190.9845
 30
0.0
 10
261.9547
 20
190.9845
 30
0.0
  0
SPLINE
  5
231
330
1F
100
AcDbEntity
  8
DEFPOINTS
370
    25
100
AcDbSpline
210
0.0
220
0.0
230
1.0
 70
    24
 71
     3
 72
     8
 73
     4
 74
     0
 42
0.0000000001
 43
0.0000000001
 40
0.0
 40
0.0
 40
0.0
 40
0.0
 40
1.0
 40
1.0
 40
1.0
 40
1.0
 10
262.9911
 20
190.9845
 30
0.0
 10
262.9911
 20
190.9845
 30
0.0
 10
265.2242
 20
190.9845
 30
0.0
 10
265.2242
 20
190.9845
 30
0.0
  0
SPLINE
  5
232
330
1F
100
AcDbEntity
  8
DEFPOINTS
370
    25
100
AcDbSpline
210
0.0
220
0.0
230
1.0
 70
     8
 71
     3
 72
    16
 73
    12
 74
     0
 42
0.0000000001
 43
0.0000000001
 40
0.0
 40
0.0
 40
0.0
 40
0.0
 40
0.3333333333333333
 40
0.3333333333333333
 40
0.3333333333333333
 40
0.3333333333333333
 40
0.6666666666666666
 40
0.6666666666666666
 40
0.6666666666666666
 40
0.6666666666666666
 40
1.0
 40
1.0
 40
1.0
 40
1.0
 10
266.3364
 20
188.4903
 30
0.0
 10
266.3364
 20
188.4903
 30
0.0
 10
266.3364
 20
218.8002
 30
0.0
 10
266.3364
 20
218.8002
 30
0.0
 10
266.3364
 20
218.8002
 30
0.0
 10
266.3364
 20
218.8002
 30
0.0
 10
212.1292
 20
218.8002
 30
0.0
 10
212.1292
 20
218.8002
 30
0.0
 10
212.1292
 20
218.8002
 30
0.0
 10
212.1292
 20
218.8002
 30
0.0
 10
212.1292
 20
188.4903
 30
0.0
 10
212.1292
 20
188.4903
 30
0.0
  0
SPLINE
  5
233
330
1F
100
AcDbEntity
  8
DEFPOINTS
370
    25
100
AcDbSpline
210
0.0
220
0.0
230
1.0
 70
    24
 71
     3
 72
     8
 73
     4
 74
     0
 42
0.0000000001
 43
0.0000000001
 40
0.0
 40
0.0
 40
0.0
 40
0.0
 40
1.0
 40
1.0
 40
1.0
 40
1.0
 10
242.1778
 20
207.5425
 30
0.0
 10
242.1778
 20
207.5425
 30
0.0
 10
262.4687
 20
193.3692
 30
0.0
 10
262.4687
 20
193.3692
 30
0.0
  0
SPLINE
  5
234
330
1F
100
AcDbEntity
  8
DEFPOINTS
370
    25
100
AcDbSpline
210
0.0
220
0.0
230
1.0
 70
    24
 71
     3
 72
     8
 73
     4
 74
     0
 42
0.0000000001
 43
0.0000000001
 40
0.0
 40
0.0
 40
0.0
 40
0.0
 40
1.0
 40
1.0
 40
1.0
 40
1.0
 10
215.9969
 20
193.3692
 30
0.0
 10
215.9969
 20
193.3692
 30
0.0
 10
236.2878
 20
207.5425
 30
0.0
 10
236.2878
 20
207.5425
 30
0.0
  0
SPLINE
  5
235
330
1F
100
AcDbEntity
  8
DEFPOINTS
370
    25
100
AcDbSpline
210
0.0
220
0.0
230
1.0
 70
    24
 71
     3
 72
     8
 73
     4
 74
     0
 42
0.0000000001
 43
0.0000000001
 40
0.0
 40
0.0
 40
0.0
 40
0.0
 40
1.0
 40
1.0
 40
1.0
 40
1.0
 10
235.7991
 20
210.5339
 30
0.0
 10
235.7991
 20
210.5339
 30
0.0
 10
215.9969
 20
215.7414
 30
0.0
 10
215.9969
 20
215.7414
 30
0.0
  0
SPLINE
  5
236
330
1F
100
AcDbEntity
  8
DEFPOINTS
370
    25
100
AcDbSpline
210
0.0
220
0.0
230
1.0
 70
    24
 71
     3
 72
     8
 73
     4
 74
     0
 42
0.0000000001
 43
0.0000000001
 40
0.0
 40
0.0
 40
0.0
 40
0.0
 40
1.0
 40
1.0
 40
1.0
 40
1.0
 10
242.6666
 20
210.5254
 30
0.0
 10
242.6666
 20
210.5254
 30
0.0
 10
262.5361
 20
215.8088
 30
0.0
 10
262.5361
 20
215.8088
 30
0.0
  0
SPLINE
  5
237
330
1F
100
AcDbEntity
  8
DEFPOINTS
370
    25
100
AcDbSpline
210
0.0
220
0.0
230
1.0
 70
    24
 71
     3
 72
     8
 73
     4
 74
     0
 42
0.0000000001
 43
0.0000000001
 40
0.0
 40
0.0
 40
0.0
 40
0.0
 40
1.0
 40
1.0
 40
1.0
 40
1.0
 10
263.3619
 20
215.7414
 30
0.0
 10
263.3619
 20
215.7414
 30
0.0
 10
263.3619
 20
193.3692
 30
0.0
 10
263.3619
 20
193.3692
 30
0.0
  0
SPLINE
  5
238
330
1F
100
AcDbEntity
  8
DEFPOINTS
370
    25
100
AcDbSpline
210
0.0
220
0.0
230
1.0
 70
    24
 71
     3
 72
     8
 73
     4
 74
     0
 42
0.0000000001
 43
0.0000000001
 40
0.0
 40
0.0
 40
0.0
 40
0.0
 40
1.0
 40
1.0
 40
1.0
 40
1.0
 10
215.0363
 20
193.2934
 30
0.0
 10
215.0363
 20
193.2934
 30
0.0
 10
215.0363
 20
215.8088
 30
0.0
 10
215.0363
 20
215.8088
 30
0.0
  0
SPLINE
  5
239
330
1F
100
AcDbEntity
  8
DEFPOINTS
370
    25
100
AcDbSpline
210
0.0
220
0.0
230
1.0
 70
    24
 71
     3
 72
     8
 73
     4
 74
     0
 42
0.0000000001
 43
0.0000000001
 40
0.0
 40
0.0
 40
0.0
 40
0.0
 40
1.0
 40
1.0
 40
1.0
 40
1.0
 10
215.9211
 20
216.702
 30
0.0
 10
215.9211
 20
216.702
 30
0.0
 10
262.5361
 20
216.702
 30
0.0
 10
262.5361
 20
216.702
 30
0.0
  0
SPLINE
  5
23A
330
1F
100
AcDbEntity
  8
DEFPOINTS
370
    25
100
AcDbSpline
210
0.0
220
0.0
230
1.0
 70
    24
 71
     3
 72
     8
 73
     4
 74
     0
 42
0.0000000001
 43
0.0000000001
 40
0.0
 40
0.0
 40
0.0
 40
0.0
 40
1.0
 40
1.0
 40
1.0
 40
1.0
 10
263.4293
 20
215.8088
 30
0.0
 10
263.4293
 20
215.8088
 30
0.0
 10
263.4293
 20
193.2934
 30
0.0
 10
263.4293
 20
193.2934
 30
0.0
  0
SPLINE
  5
23B
330
1F
100
AcDbEntity
  8
DEFPOINTS
370
    25
100
AcDbSpline
210
0.0
220
0.0
230
1.0
 70
    11
 71
     3
 72
    20
 73
    16
 74
     0
 42
0.0000000001
 43
0.0000000001
 40
0.0
 40
0.0
 40
0.0
 40
0.0
 40
0.25
 40
0.25
 40
0.25
 40
0.25
 40
0.5
 40
0.5
 40
0.5
 40
0.5
 40
0.75
 40
0.75
 40
0.75
 40
0.75
 40
1.0
 40
1.0
 40
1.0
 40
1.0
 10
242.8014
 20
209.5648
 30
0.0
 10
242.7997
 20
211.5501
 30
0.0
 10
241.2054
 20
213.1184
 30
0.0
 10
239.2286
 20
213.1376
 30
0.0
 10
239.2286
 20
213.1376
 30
0.0
 10
237.2574
 20
213.1194
 30
0.0
 10
235.6641
 20
211.5421
 30
0.0
 10
235.6642
 20
209.5648
 30
0.0
 10
235.6642
 20
209.5648
 30
0.0
 10
235.6523
 20
207.6096
 30
0.0
 10
237.272
 20
205.982
 30
0.0
 10
239.2286
 20
205.992
 30
0.0
 10
239.2286
 20
205.992
 30
0.0
 10
241.1946
 20
205.9858
 30
0.0
 10
242.8086
 20
207.598
 30
0.0
 10
242.8014
 20
209.5648
 30
0.0
  0
SPLINE
  5
23C
330
1F
100
AcDbEntity
  8
DEFPOINTS
370
    25
100
AcDbSpline
210
0.0
220
0.0
230
1.0
 70
    11
 71
     3
 72
    12
 73
     8
 74
     0
 42
0.0000000001
 43
0.0000000001
 40
0.0
 40
0.0
 40
0.0
 40
0.0
 40
0.5
 40
0.5
 40
0.5
 40
0.5
 40
1.0
 40
1.0
 40
1.0
 40
1.0
 10
241.9082
 20
209.5648
 30
0.0
 10
241.7411
 20
213.1201
 30
0.0
 10
236.7178
 20
213.1249
 30
0.0
 10
236.5574
 20
209.5648
 30
0.0
 10
236.5574
 20
209.5648
 30
0.0
 10
236.7118
 20
206.0052
 30
0.0
 10
241.747
 20
206.0099
 30
0.0
 10
241.9082
 20
209.5648
 30
0.0
  0
SPLINE
  5
23D
330
1F
100
AcDbEntity
  8
DEFPOINTS
370
    25
100
AcDbSpline
210
0.0
220
0.0
230
1.0
 70
    24
 71
     3
 72
     8
 73
     4
 74
     0
 42
0.0000000001
 43
0.0000000001
 40
0.0
 40
0.0
 40
0.0
 40
0.0
 40
1.0
 40
1.0
 40
1.0
 40
1.0
 10
262.4687
 20
192.476
 30
0.0
 10
262.4687
 20
192.476
 30
0.0
 10
215.9969
 20
192.476
 30
0.0
 10
215.9969
 20
192.476
 30
0.0
  0
SPLINE
  5
23E
330
1F
100
AcDbEntity
  8
DEFPOINTS
370
    25
100
AcDbSpline
210
0.0
220
0.0
230
1.0
 70
    24
 71
     3
 72
     8
 73
     4
 74
     0
 42
0.0000000001
 43
0.0000000001
 40
0.0
 40
0.0
 40
0.0
 40
0.0
 40
1.0
 40
1.0
 40
1.0
 40
1.0
 10
262.5361
 20
192.4002
 30
0.0
 10
262.5361
 20
192.4002
 30
0.0
 10
215.9211
 20
192.4002
 30
0.0
 10
215.9211
 20
192.4002
 30
0.0
  0
SPLINE
  5
23F
330
1F
100
AcDbEntity
  8
DEFPOINTS
 62
     5
370
    25
100
AcDbSpline
210
0.0
220
0.0
230
1.0
 70
    24
 71
     3
 72
     8
 73
     4
 74
     0
 42
0.0000000001
 43
0.0000000001
 40
0.0
 40
0.0
 40
0.0
 40
0.0
 40
1.0
 40
1.0
 40
1.0
 40
1.0
 10
273.895
 20
218.8002
 30
0.0
 10
273.895
 20
218.8002
 30
0.0
 10
273.9371
 20
218.8002
 30
0.0
 10
273.9371
 20
218.8002
 30
0.0
  0
SPLINE
  5
240
330
1F
100
AcDbEntity
  8
DEFPOINTS
 62
     5
370
    25
100
AcDbSpline
210
0.0
220
0.0
230
1.0
 70
    24
 71
     3
 72
     8
 73
     4
 74
     0
 42
0.0000000001
 43
0.0000000001
 40
0.0
 40
0.0
 40
0.0
 40
0.0
 40
1.0
 40
1.0
 40
1.0
 40
1.0
 10
273.895
 20
188.5746
 30
0.0
 10
273.895
 20
188.5746
 30
0.0
 10
273.9371
 20
188.5746
 30
0.0
 10
273.9371
 20
188.5746
 30
0.0
  0
SPLINE
  5
241
330
1F
100
AcDbEntity
  8
DEFPOINTS
 62
     5
370
    25
100
AcDbSpline
210
0.0
220
0.0
230
1.0
 70
    24
 71
     3
 72
     8
 73
     4
 74
     0
 42
0.0000000001
 43
0.0000000001
 40
0.0
 40
0.0
 40
0.0
 40
0.0
 40
1.0
 40
1.0
 40
1.0
 40
1.0
 10
274.9314
 20
217.1486
 30
0.0
 10
274.9314
 20
217.1486
 30
0.0
 10
274.9314
 20
205.5033
 30
0.0
 10
274.9314
 20
205.5033
 30
0.0
  0
SPLINE
  5
242
330
1F
100
AcDbEntity
  8
DEFPOINTS
 62
     5
370
    25
100
AcDbSpline
210
0.0
220
0.0
230
1.0
 70
    24
 71
     3
 72
     8
 73
     4
 74
     0
 42
0.0000000001
 43
0.0000000001
 40
0.0
 40
0.0
 40
0.0
 40
0.0
 40
1.0
 40
1.0
 40
1.0
 40
1.0
 10
274.9314
 20
190.2262
 30
0.0
 10
274.9314
 20
190.2262
 30
0.0
 10
274.9314
 20
201.8631
 30
0.0
 10
274.9314
 20
201.8631
 30
0.0
  0
SPLINE
  5
243
330
1F
100
AcDbEntity
  8
DEFPOINTS
 62
     5
100
AcDbSpline
210
0.0
220
0.0
230
1.0
 70
    11
 71
     3
 72
    16
 73
    12
 74
     0
 42
0.0000000001
 43
0.0000000001
 40
0.0
 40
0.0
 40
0.0
 40
0.0
 40
0.3333333333333333
 40
0.3333333333333333
 40
0.3333333333333333
 40
0.3333333333333333
 40
0.6666666666666666
 40
0.6666666666666666
 40
0.6666666666666666
 40
0.6666666666666666
 40
1.0
 40
1.0
 40
1.0
 40
1.0
 10
274.6533
 20
217.1486
 30
0.0
 10
274.6533
 20
217.1486
 30
0.0
 10
275.201
 20
217.1486
 30
0.0
 10
275.201
 20
217.1486
 30
0.0
 10
275.201
 20
217.1486
 30
0.0
 10
275.201
 20
217.1486
 30
0.0
 10
274.9314
 20
218.8002
 30
0.0
 10
274.9314
 20
218.8002
 30
0.0
 10
274.9314
 20
218.8002
 30
0.0
 10
274.9314
 20
218.8002
 30
0.0
 10
274.6533
 20
217.1486
 30
0.0
 10
274.6533
 20
217.1486
 30
0.0
  0
SPLINE
  5
244
330
1F
100
AcDbEntity
  8
DEFPOINTS
 62
     5
100
AcDbSpline
210
0.0
220
0.0
230
1.0
 70
    11
 71
     3
 72
    16
 73
    12
 74
     0
 42
0.0000000001
 43
0.0000000001
 40
0.0
 40
0.0
 40
0.0
 40
0.0
 40
0.3333333333333333
 40
0.3333333333333333
 40
0.3333333333333333
 40
0.3333333333333333
 40
0.6666666666666666
 40
0.6666666666666666
 40
0.6666666666666666
 40
0.6666666666666666
 40
1.0
 40
1.0
 40
1.0
 40
1.0
 10
274.6533
 20
190.2262
 30
0.0
 10
274.6533
 20
190.2262
 30
0.0
 10
275.201
 20
190.2262
 30
0.0
 10
275.201
 20
190.2262
 30
0.0
 10
275.201
 20
190.2262
 30
0.0
 10
275.201
 20
190.2262
 30
0.0
 10
274.9314
 20
188.5746
 30
0.0
 10
274.9314
 20
188.5746
 30
0.0
 10
274.9314
 20
188.5746
 30
0.0
 10
274.9314
 20
188.5746
 30
0.0
 10
274.6533
 20
190.2262
 30
0.0
 10
274.6533
 20
190.2262
 30
0.0
  0
SPLINE
  5
245
330
1F
100
AcDbEntity
  8
DEFPOINTS
 62
     5
370
    25
100
AcDbSpline
210
0.0
220
0.0
230
1.0
 70
     8
 71
     3
 72
    40
 73
    36
 74
     0
 42
0.0000000001
 43
0.0000000001
 40
0.0
 40
0.0
 40
0.0
 40
0.0
 40
0.1111111111111111
 40
0.1111111111111111
 40
0.1111111111111111
 40
0.1111111111111111
 40
0.2222222222222222
 40
0.2222222222222222
 40
0.2222222222222222
 40
0.2222222222222222
 40
0.3333333333333333
 40
0.3333333333333333
 40
0.3333333333333333
 40
0.3333333333333333
 40
0.4444444444444444
 40
0.4444444444444444
 40
0.4444444444444444
 40
0.4444444444444444
 40
0.5555555555555556
 40
0.5555555555555556
 40
0.5555555555555556
 40
0.5555555555555556
 40
0.6666666666666667
 40
0.6666666666666667
 40
0.6666666666666667
 40
0.6666666666666667
 40
0.7777777777777779
 40
0.7777777777777779
 40
0.7777777777777779
 40
0.7777777777777779
 40
0.8888888888888891
 40
0.8888888888888891
 40
0.8888888888888891
 40
0.8888888888888891
 40
1.0
 40
1.0
 40
1.0
 40
1.0
 10
273.1366
 20
204.2393
 30
0.0
 10
273.1366
 20
204.2393
 30
0.0
 10
273.4146
 20
204.509
 30
0.0
 10
273.4146
 20
204.509
 30
0.0
 10
273.4146
 20
204.509
 30
0.0
 10
273.4146
 20
204.509
 30
0.0
 10
273.9624
 20
204.509
 30
0.0
 10
273.9624
 20
204.509
 30
0.0
 10
273.9624
 20
204.509
 30
0.0
 10
273.9624
 20
204.509
 30
0.0
 10
274.2404
 20
204.2393
 30
0.0
 10
274.2404
 20
204.2393
 30
0.0
 10
274.2404
 20
204.2393
 30
0.0
 10
274.2404
 20
204.2393
 30
0.0
 10
274.2404
 20
203.9613
 30
0.0
 10
274.2404
 20
203.9613
 30
0.0
 10
274.2404
 20
203.9613
 30
0.0
 10
274.2404
 20
203.9613
 30
0.0
 10
273.9624
 20
203.6832
 30
0.0
 10
273.9624
 20
203.6832
 30
0.0
 10
273.9624
 20
203.6832
 30
0.0
 10
273.9624
 20
203.6832
 30
0.0
 10
273.4146
 20
203.6832
 30
0.0
 10
273.4146
 20
203.6832
 30
0.0
 10
273.4146
 20
203.6832
 30
0.0
 10
273.4146
 20
203.6832
 30
0.0
 10
273.1366
 20
203.4135
 30
0.0
 10
273.1366
 20
203.4135
 30
0.0
 10
273.1366
 20
203.4135
 30
0.0
 10
273.1366
 20
203.4135
 30
0.0
 10
273.1366
 20
202.8574
 30
0.0
 10
273.1366
 20
202.8574
 30
0.0
 10
273.1366
 20
202.8574
 30
0.0
 10
273.1366
 20
202.8574
 30
0.0
 10
274.2404
 20
202.8574
 30
0.0
 10
274.2404
 20
202.8574
 30
0.0
  0
SPLINE
  5
246
330
1F
100
AcDbEntity
  8
DEFPOINTS
 62
     5
370
    25
100
AcDbSpline
210
0.0
220
0.0
230
1.0
 70
    11
 71
     3
 72
    36
 73
    32
 74
     0
 42
0.0000000001
 43
0.0000000001
 40
0.0
 40
0.0
 40
0.0
 40
0.0
 40
0.125
 40
0.125
 40
0.125
 40
0.125
 40
0.25
 40
0.25
 40
0.25
 40
0.25
 40
0.375
 40
0.375
 40
0.375
 40
0.375
 40
0.5
 40
0.5
 40
0.5
 40
0.5
 40
0.625
 40
0.625
 40
0.625
 40
0.625
 40
0.75
 40
0.75
 40
0.75
 40
0.75
 40
0.875
 40
0.875
 40
0.875
 40
0.875
 40
1.0
 40
1.0
 40
1.0
 40
1.0
 10
275.0662
 20
202.8574
 30
0.0
 10
275.0662
 20
202.8574
 30
0.0
 10
274.7881
 20
203.1355
 30
0.0
 10
274.7881
 20
203.1355
 30
0.0
 10
274.7881
 20
203.1355
 30
0.0
 10
274.7881
 20
203.1355
 30
0.0
 10
274.7881
 20
204.2393
 30
0.0
 10
274.7881
 20
204.2393
 30
0.0
 10
274.7881
 20
204.2393
 30
0.0
 10
274.7881
 20
204.2393
 30
0.0
 10
275.0662
 20
204.509
 30
0.0
 10
275.0662
 20
204.509
 30
0.0
 10
275.0662
 20
204.509
 30
0.0
 10
275.0662
 20
204.509
 30
0.0
 10
275.3443
 20
204.509
 30
0.0
 10
275.3443
 20
204.509
 30
0.0
 10
275.3443
 20
204.509
 30
0.0
 10
275.3443
 20
204.509
 30
0.0
 10
275.6139
 20
204.2393
 30
0.0
 10
275.6139
 20
204.2393
 30
0.0
 10
275.6139
 20
204.2393
 30
0.0
 10
275.6139
 20
204.2393
 30
0.0
 10
275.6139
 20
203.1355
 30
0.0
 10
275.6139
 20
203.1355
 30
0.0
 10
275.6139
 20
203.1355
 30
0.0
 10
275.6139
 20
203.1355
 30
0.0
 10
275.3443
 20
202.8574
 30
0.0
 10
275.3443
 20
202.8574
 30
0.0
 10
275.3443
 20
202.8574
 30
0.0
 10
275.3443
 20
202.8574
 30
0.0
 10
275.0662
 20
202.8574
 30
0.0
 10
275.0662
 20
202.8574
 30
0.0
  0
SPLINE
  5
247
330
1F
100
AcDbEntity
  8
DEFPOINTS
 62
     5
370
    25
100
AcDbSpline
210
0.0
220
0.0
230
1.0
 70
    24
 71
     3
 72
     8
 73
     4
 74
     0
 42
0.0000000001
 43
0.0000000001
 40
0.0
 40
0.0
 40
0.0
 40
0.0
 40
1.0
 40
1.0
 40
1.0
 40
1.0
 10
276.1701
 20
203.9613
 30
0.0
 10
276.1701
 20
203.9613
 30
0.0
 10
276.4482
 20
204.509
 30
0.0
 10
276.4482
 20
204.509
 30
0.0
  0
SPLINE
  5
248
330
1F
100
AcDbEntity
  8
DEFPOINTS
 62
     5
370
    25
100
AcDbSpline
210
0.0
220
0.0
230
1.0
 70
    24
 71
     3
 72
     8
 73
     4
 74
     0
 42
0.0000000001
 43
0.0000000001
 40
0.0
 40
0.0
 40
0.0
 40
0.0
 40
1.0
 40
1.0
 40
1.0
 40
1.0
 10
276.7178
 20
204.509
 30
0.0
 10
276.7178
 20
204.509
 30
0.0
 10
276.4482
 20
203.9613
 30
0.0
 10
276.4482
 20
203.9613
 30
0.0
  0
SPLINE
  5
249
330
1F
100
AcDbEntity
  8
DEFPOINTS
 62
     5
370
    25
100
AcDbSpline
210
0.0
220
0.0
230
1.0
 70
    24
 71
     3
 72
     8
 73
     4
 74
     0
 42
0.0000000001
 43
0.0000000001
 40
0.0
 40
0.0
 40
0.0
 40
0.0
 40
1.0
 40
1.0
 40
1.0
 40
1.0
 10
269.7407
 20
215.7077
 30
0.0
 10
269.7407
 20
215.7077
 30
0.0
 10
269.6396
 20
215.7077
 30
0.0
 10
269.6396
 20
215.7077
 30
0.0
  0
SPLINE
  5
24A
330
1F
100
AcDbEntity
  8
DEFPOINTS
 62
     5
370
    25
100
AcDbSpline
210
0.0
220
0.0
230
1.0
 70
    24
 71
     3
 72
     8
 73
     4
 74
     0
 42
0.0000000001
 43
0.0000000001
 40
0.0
 40
0.0
 40
0.0
 40
0.0
 40
1.0
 40
1.0
 40
1.0
 40
1.0
 10
269.6396
 20
191.6081
 30
0.0
 10
269.6396
 20
191.6081
 30
0.0
 10
269.648
 20
191.6081
 30
0.0
 10
269.648
 20
191.6081
 30
0.0
  0
SPLINE
  5
24B
330
1F
100
AcDbEntity
  8
DEFPOINTS
 62
     5
370
    25
100
AcDbSpline
210
0.0
220
0.0
230
1.0
 70
    24
 71
     3
 72
     8
 73
     4
 74
     0
 42
0.0000000001
 43
0.0000000001
 40
0.0
 40
0.0
 40
0.0
 40
0.0
 40
1.0
 40
1.0
 40
1.0
 40
1.0
 10
270.6339
 20
214.0561
 30
0.0
 10
270.6339
 20
214.0561
 30
0.0
 10
270.6339
 20
205.5033
 30
0.0
 10
270.6339
 20
205.5033
 30
0.0
  0
SPLINE
  5
24C
330
1F
100
AcDbEntity
  8
DEFPOINTS
 62
     5
370
    25
100
AcDbSpline
210
0.0
220
0.0
230
1.0
 70
    24
 71
     3
 72
     8
 73
     4
 74
     0
 42
0.0000000001
 43
0.0000000001
 40
0.0
 40
0.0
 40
0.0
 40
0.0
 40
1.0
 40
1.0
 40
1.0
 40
1.0
 10
270.6339
 20
193.2597
 30
0.0
 10
270.6339
 20
193.2597
 30
0.0
 10
270.6339
 20
201.8631
 30
0.0
 10
270.6339
 20
201.8631
 30
0.0
  0
SPLINE
  5
24D
330
1F
100
AcDbEntity
  8
DEFPOINTS
 62
     5
100
AcDbSpline
210
0.0
220
0.0
230
1.0
 70
    11
 71
     3
 72
    16
 73
    12
 74
     0
 42
0.0000000001
 43
0.0000000001
 40
0.0
 40
0.0
 40
0.0
 40
0.0
 40
0.3333333333333333
 40
0.3333333333333333
 40
0.3333333333333333
 40
0.3333333333333333
 40
0.6666666666666666
 40
0.6666666666666666
 40
0.6666666666666666
 40
0.6666666666666666
 40
1.0
 40
1.0
 40
1.0
 40
1.0
 10
270.3559
 20
214.0561
 30
0.0
 10
270.3559
 20
214.0561
 30
0.0
 10
270.9036
 20
214.0561
 30
0.0
 10
270.9036
 20
214.0561
 30
0.0
 10
270.9036
 20
214.0561
 30
0.0
 10
270.9036
 20
214.0561
 30
0.0
 10
270.6339
 20
215.7077
 30
0.0
 10
270.6339
 20
215.7077
 30
0.0
 10
270.6339
 20
215.7077
 30
0.0
 10
270.6339
 20
215.7077
 30
0.0
 10
270.3559
 20
214.0561
 30
0.0
 10
270.3559
 20
214.0561
 30
0.0
  0
SPLINE
  5
24E
330
1F
100
AcDbEntity
  8
DEFPOINTS
 62
     5
100
AcDbSpline
210
0.0
220
0.0
230
1.0
 70
    11
 71
     3
 72
    16
 73
    12
 74
     0
 42
0.0000000001
 43
0.0000000001
 40
0.0
 40
0.0
 40
0.0
 40
0.0
 40
0.3333333333333333
 40
0.3333333333333333
 40
0.3333333333333333
 40
0.3333333333333333
 40
0.6666666666666666
 40
0.6666666666666666
 40
0.6666666666666666
 40
0.6666666666666666
 40
1.0
 40
1.0
 40
1.0
 40
1.0
 10
270.3559
 20
193.2597
 30
0.0
 10
270.3559
 20
193.2597
 30
0.0
 10
270.9036
 20
193.2597
 30
0.0
 10
270.9036
 20
193.2597
 30
0.0
 10
270.9036
 20
193.2597
 30
0.0
 10
270.9036
 20
193.2597
 30
0.0
 10
270.6339
 20
191.6081
 30
0.0
 10
270.6339
 20
191.6081
 30
0.0
 10
270.6339
 20
191.6081
 30
0.0
 10
270.6339
 20
191.6081
 30
0.0
 10
270.3559
 20
193.2597
 30
0.0
 10
270.3559
 20
193.2597
 30
0.0
  0
SPLINE
  5
24F
330
1F
100
AcDbEntity
  8
DEFPOINTS
 62
     5
370
    25
100
AcDbSpline
210
0.0
220
0.0
230
1.0
 70
     8
 71
     3
 72
    12
 73
     8
 74
     0
 42
0.0000000001
 43
0.0000000001
 40
0.0
 40
0.0
 40
0.0
 40
0.0
 40
0.5
 40
0.5
 40
0.5
 40
0.5
 40
1.0
 40
1.0
 40
1.0
 40
1.0
 10
268.9823
 20
204.2393
 30
0.0
 10
268.9823
 20
204.2393
 30
0.0
 10
269.252
 20
204.509
 30
0.0
 10
269.252
 20
204.509
 30
0.0
 10
269.252
 20
204.509
 30
0.0
 10
269.252
 20
204.509
 30
0.0
 10
269.252
 20
202.8574
 30
0.0
 10
269.252
 20
202.8574
 30
0.0
  0
SPLINE
  5
250
330
1F
100
AcDbEntity
  8
DEFPOINTS
 62
     5
370
    25
100
AcDbSpline
210
0.0
220
0.0
230
1.0
 70
    24
 71
     3
 72
     8
 73
     4
 74
     0
 42
0.0000000001
 43
0.0000000001
 40
0.0
 40
0.0
 40
0.0
 40
0.0
 40
1.0
 40
1.0
 40
1.0
 40
1.0
 10
268.9823
 20
202.8574
 30
0.0
 10
268.9823
 20
202.8574
 30
0.0
 10
269.53
 20
202.8574
 30
0.0
 10
269.53
 20
202.8574
 30
0.0
  0
SPLINE
  5
251
330
1F
100
AcDbEntity
  8
DEFPOINTS
 62
     5
370
    25
100
AcDbSpline
210
0.0
220
0.0
230
1.0
 70
     8
 71
     3
 72
    40
 73
    36
 74
     0
 42
0.0000000001
 43
0.0000000001
 40
0.0
 40
0.0
 40
0.0
 40
0.0
 40
0.1111111111111111
 40
0.1111111111111111
 40
0.1111111111111111
 40
0.1111111111111111
 40
0.2222222222222222
 40
0.2222222222222222
 40
0.2222222222222222
 40
0.2222222222222222
 40
0.3333333333333333
 40
0.3333333333333333
 40
0.3333333333333333
 40
0.3333333333333333
 40
0.4444444444444444
 40
0.4444444444444444
 40
0.4444444444444444
 40
0.4444444444444444
 40
0.5555555555555556
 40
0.5555555555555556
 40
0.5555555555555556
 40
0.5555555555555556
 40
0.6666666666666667
 40
0.6666666666666667
 40
0.6666666666666667
 40
0.6666666666666667
 40
0.7777777777777779
 40
0.7777777777777779
 40
0.7777777777777779
 40
0.7777777777777779
 40
0.8888888888888891
 40
0.8888888888888891
 40
0.8888888888888891
 40
0.8888888888888891
 40
1.0
 40
1.0
 40
1.0
 40
1.0
 10
270.0778
 20
203.6832
 30
0.0
 10
270.0778
 20
203.6832
 30
0.0
 10
270.9036
 20
203.6832
 30
0.0
 10
270.9036
 20
203.6832
 30
0.0
 10
270.9036
 20
203.6832
 30
0.0
 10
270.9036
 20
203.6832
 30
0.0
 10
271.1816
 20
203.4135
 30
0.0
 10
271.1816
 20
203.4135
 30
0.0
 10
271.1816
 20
203.4135
 30
0.0
 10
271.1816
 20
203.4135
 30
0.0
 10
271.1816
 20
203.1355
 30
0.0
 10
271.1816
 20
203.1355
 30
0.0
 10
271.1816
 20
203.1355
 30
0.0
 10
271.1816
 20
203.1355
 30
0.0
 10
270.9036
 20
202.8574
 30
0.0
 10
270.9036
 20
202.8574
 30
0.0
 10
270.9036
 20
202.8574
 30
0.0
 10
270.9036
 20
202.8574
 30
0.0
 10
270.3559
 20
202.8574
 30
0.0
 10
270.3559
 20
202.8574
 30
0.0
 10
270.3559
 20
202.8574
 30
0.0
 10
270.3559
 20
202.8574
 30
0.0
 10
270.0778
 20
203.1355
 30
0.0
 10
270.0778
 20
203.1355
 30
0.0
 10
270.0778
 20
203.1355
 30
0.0
 10
270.0778
 20
203.1355
 30
0.0
 10
270.0778
 20
203.9613
 30
0.0
 10
270.0778
 20
203.9613
 30
0.0
 10
270.0778
 20
203.9613
 30
0.0
 10
270.0778
 20
203.9613
 30
0.0
 10
270.6339
 20
204.509
 30
0.0
 10
270.6339
 20
204.509
 30
0.0
 10
270.6339
 20
204.509
 30
0.0
 10
270.6339
 20
204.509
 30
0.0
 10
270.9036
 20
204.509
 30
0.0
 10
270.9036
 20
204.509
 30
0.0
  0
SPLINE
  5
252
330
1F
100
AcDbEntity
  8
DEFPOINTS
 62
     5
370
    25
100
AcDbSpline
210
0.0
220
0.0
230
1.0
 70
    24
 71
     3
 72
     8
 73
     4
 74
     0
 42
0.0000000001
 43
0.0000000001
 40
0.0
 40
0.0
 40
0.0
 40
0.0
 40
1.0
 40
1.0
 40
1.0
 40
1.0
 10
271.7378
 20
203.9613
 30
0.0
 10
271.7378
 20
203.9613
 30
0.0
 10
272.0074
 20
204.509
 30
0.0
 10
272.0074
 20
204.509
 30
0.0
  0
SPLINE
  5
253
330
1F
100
AcDbEntity
  8
DEFPOINTS
 62
     5
370
    25
100
AcDbSpline
210
0.0
220
0.0
230
1.0
 70
    24
 71
     3
 72
     8
 73
     4
 74
     0
 42
0.0000000001
 43
0.0000000001
 40
0.0
 40
0.0
 40
0.0
 40
0.0
 40
1.0
 40
1.0
 40
1.0
 40
1.0
 10
272.2855
 20
204.509
 30
0.0
 10
272.2855
 20
204.509
 30
0.0
 10
272.0074
 20
203.9613
 30
0.0
 10
272.0074
 20
203.9613
 30
0.0
  0
ENDSEC
  0
SECTION
  2
OBJECTS
  0
DICTIONARY
  5
C
330
0
100
AcDbDictionary
281
     1
  3
ACAD_GROUP
350
D
  3
ACAD_LAYOUT
350
1A
  3
ACAD_MLEADERSTYLE
350
255
  3
ACAD_MLINESTYLE
350
17
  3
ACAD_PLOTSETTINGS
350
19
  3
ACAD_PLOTSTYLENAME
350
E
  3
ACAD_SCALELIST
350
3B
  3
ACAD_TABLESTYLE
350
254
  3
ACAD_VISUALSTYLE
350
2A
  0
DICTIONARY
  5
D
102
{ACAD_REACTORS
330
C
102
}
330
C
100
AcDbDictionary
281
     1
  0
DICTIONARY
  5
1A
102
{ACAD_REACTORS
330
C
102
}
330
C
100
AcDbDictionary
281
     1
  3
Layout1
350
1E
  3
Layout2
350
26
  3
Model
350
22
  0
DICTIONARY
  5
255
102
{ACAD_REACTORS
330
C
102
}
330
C
100
AcDbDictionary
281
     1
  0
DICTIONARY
  5
17
102
{ACAD_REACTORS
330
C
102
}
330
C
100
AcDbDictionary
281
     1
  3
Standard
350
18
  0
DICTIONARY
  5
19
102
{ACAD_REACTORS
330
C
102
}
330
C
100
AcDbDictionary
281
     1
  0
ACDBDICTIONARYWDFLT
  5
E
102
{ACAD_REACTORS
330
C
102
}
330
C
100
AcDbDictionary
281
     1
  3
Normal
350
F
100
AcDbDictionaryWithDefault
340
F
  0
DICTIONARY
  5
3B
102
{ACAD_REACTORS
330
C
102
}
330
C
100
AcDbDictionary
281
     1
  3
A0
350
3C
  3
A1
350
3D
  3
A2
350
3E
  3
A3
350
3F
  3
A4
350
40
  3
A5
350
41
  3
A6
350
42
  3
A7
350
43
  3
A8
350
44
  3
A9
350
45
  3
B0
350
46
  3
B1
350
47
  3
B2
350
48
  3
B3
350
49
  3
B4
350
4A
  3
B5
350
4B
  3
B6
350
4C
  3
B7
350
4D
  3
B8
350
4E
  3
B9
350
4F
  3
C0
350
50
  3
C1
350
51
  3
C2
350
52
  3
C3
350
53
  3
C4
350
54
  3
C5
350
55
  3
C6
350
56
  3
C7
350
57
  3
C8
350
58
  3
C9
350
59
  3
D0
350
5A
  3
D1
350
5B
  3
D2
350
5C
  0
DICTIONARY
  5
254
102
{ACAD_REACTORS
330
C
102
}
330
C
100
AcDbDictionary
281
     1
  0
DICTIONARY
  5
2A
102
{ACAD_REACTORS
330
C
102
}
330
C
100
AcDbDictionary
281
     1
  3
2dWireframe
350
2F
  3
3D Hidden
350
31
  3
3dWireframe
350
30
  3
Basic
350
32
  3
Brighten
350
36
  3
ColorChange
350
3A
  3
Conceptual
350
34
  3
Dim
350
35
  3
Facepattern
350
39
  3
Flat
350
2B
  3
FlatWithEdges
350
2C
  3
Gouraud
350
2D
  3
GouraudWithEdges
350
2E
  3
Linepattern
350
38
  3
Realistic
350
33
  3
Thicken
350
37
  0
LAYOUT
  5
1E
102
{ACAD_REACTORS
330
1A
102
}
330
1A
100
AcDbPlotSettings
  1

  2
none_device
  4

  6

 40
0.0
 41
0.0
 42
0.0
 43
0.0
 44
0.0
 45
0.0
 46
0.0
 47
0.0
 48
0.0
 49
0.0
140
0.0
141
0.0
142
1.0
143
1.0
 70
   688
 72
     0
 73
     0
 74
     5
  7

 75
    16
 76
     0
 77
     2
 78
   300
147
1.0
148
0.0
149
0.0
100
AcDbLayout
  1
Layout1
 70
     1
 71
     1
 10
0.0
 20
0.0
 11
12.0
 21
9.0
 12
0.0
 22
0.0
 32
0.0
 14
1.000000000000000E+20
 24
1.000000000000000E+20
 34
1.000000000000000E+20
 15
-1.000000000000000E+20
 25
-1.000000000000000E+20
 35
-1.000000000000000E+20
146
0.0
 13
0.0
 23
0.0
 33
0.0
 16
1.0
 26
0.0
 36
0.0
 17
0.0
 27
1.0
 37
0.0
 76
     0
330
1B
  0
LAYOUT
  5
26
102
{ACAD_REACTORS
330
1A
102
}
330
1A
100
AcDbPlotSettings
  1

  2
none_device
  4

  6

 40
0.0
 41
0.0
 42
0.0
 43
0.0
 44
0.0
 45
0.0
 46
0.0
 47
0.0
 48
0.0
 49
0.0
140
0.0
141
0.0
142
1.0
143
1.0
 70
   688
 72
     0
 73
     0
 74
     5
  7

 75
    16
 76
     0
 77
     2
 78
   300
147
1.0
148
0.0
149
0.0
100
AcDbLayout
  1
Layout2
 70
     1
 71
     2
 10
0.0
 20
0.0
 11
0.0
 21
0.0
 12
0.0
 22
0.0
 32
0.0
 14
0.0
 24
0.0
 34
0.0
 15
0.0
 25
0.0
 35
0.0
146
0.0
 13
0.0
 23
0.0
 33
0.0
 16
1.0
 26
0.0
 36
0.0
 17
0.0
 27
1.0
 37
0.0
 76
     0
330
23
  0
LAYOUT
  5
22
102
{ACAD_REACTORS
330
1A
102
}
330
1A
100
AcDbPlotSettings
  1

  2
none_device
  4

  6

 40
0.0
 41
0.0
 42
0.0
 43
0.0
 44
0.0
 45
0.0
 46
0.0
 47
0.0
 48
0.0
 49
0.0
140
0.0
141
0.0
142
1.0
143
1.0
 70
  1712
 72
     0
 73
     0
 74
     0
  7

 75
     0
 76
     0
 77
     2
 78
   300
147
1.0
148
0.0
149
0.0
100
AcDbLayout
  1
Model
 70
     1
 71
     0
 10
0.0
 20
0.0
 11
12.0
 21
9.0
 12
0.0
 22
0.0
 32
0.0
 14
168.6749
 24
136.3657
 34
0.0
 15
334.1344
 25
259.7017
 35
0.0
146
0.0
 13
0.0
 23
0.0
 33
0.0
 16
1.0
 26
0.0
 36
0.0
 17
0.0
 27
1.0
 37
0.0
 76
     0
330
1F
331
29
  0
MLINESTYLE
  5
18
102
{ACAD_REACTORS
330
17
102
}
330
17
100
AcDbMlineStyle
  2
Standard
 70
     0
  3

 62
   256
 51
90.0
 52
90.0
 71
     2
 49
0.5
 62
   256
  6
BYLAYER
 49
-0.5
 62
   256
  6
BYLAYER
  0
ACDBPLACEHOLDER
  5
F
102
{ACAD_REACTORS
330
E
102
}
330
E
  0
SCALE
  5
3C
102
{ACAD_REACTORS
330
3B
102
}
330
3B
100
AcDbScale
 70
     0
300
1:1
140
1.0
141
1.0
290
     1
  0
SCALE
  5
3D
102
{ACAD_REACTORS
330
3B
102
}
330
3B
100
AcDbScale
 70
     0
300
1:2
140
1.0
141
2.0
290
     0
  0
SCALE
  5
3E
102
{ACAD_REACTORS
330
3B
102
}
330
3B
100
AcDbScale
 70
     0
300
1:4
140
1.0
141
4.0
290
     0
  0
SCALE
  5
3F
102
{ACAD_REACTORS
330
3B
102
}
330
3B
100
AcDbScale
 70
     0
300
1:5
140
1.0
141
5.0
290
     0
  0
SCALE
  5
40
102
{ACAD_REACTORS
330
3B
102
}
330
3B
100
AcDbScale
 70
     0
300
1:8
140
1.0
141
8.0
290
     0
  0
SCALE
  5
41
102
{ACAD_REACTORS
330
3B
102
}
330
3B
100
AcDbScale
 70
     0
300
1:10
140
1.0
141
10.0
290
     0
  0
SCALE
  5
42
102
{ACAD_REACTORS
330
3B
102
}
330
3B
100
AcDbScale
 70
     0
300
1:16
140
1.0
141
16.0
290
     0
  0
SCALE
  5
43
102
{ACAD_REACTORS
330
3B
102
}
330
3B
100
AcDbScale
 70
     0
300
1:20
140
1.0
141
20.0
290
     0
  0
SCALE
  5
44
102
{ACAD_REACTORS
330
3B
102
}
330
3B
100
AcDbScale
 70
     0
300
1:30
140
1.0
141
30.0
290
     0
  0
SCALE
  5
45
102
{ACAD_REACTORS
330
3B
102
}
330
3B
100
AcDbScale
 70
     0
300
1:40
140
1.0
141
40.0
290
     0
  0
SCALE
  5
46
102
{ACAD_REACTORS
330
3B
102
}
330
3B
100
AcDbScale
 70
     0
300
1:50
140
1.0
141
50.0
290
     0
  0
SCALE
  5
47
102
{ACAD_REACTORS
330
3B
102
}
330
3B
100
AcDbScale
 70
     0
300
1:100
140
1.0
141
100.0
290
     0
  0
SCALE
  5
48
102
{ACAD_REACTORS
330
3B
102
}
330
3B
100
AcDbScale
 70
     0
300
2:1
140
2.0
141
1.0
290
     0
  0
SCALE
  5
49
102
{ACAD_REACTORS
330
3B
102
}
330
3B
100
AcDbScale
 70
     0
300
4:1
140
4.0
141
1.0
290
     0
  0
SCALE
  5
4A
102
{ACAD_REACTORS
330
3B
102
}
330
3B
100
AcDbScale
 70
     0
300
8:1
140
8.0
141
1.0
290
     0
  0
SCALE
  5
4B
102
{ACAD_REACTORS
330
3B
102
}
330
3B
100
AcDbScale
 70
     0
300
10:1
140
10.0
141
1.0
290
     0
  0
SCALE
  5
4C
102
{ACAD_REACTORS
330
3B
102
}
330
3B
100
AcDbScale
 70
     0
300
100:1
140
100.0
141
1.0
290
     0
  0
SCALE
  5
4D
102
{ACAD_REACTORS
330
3B
102
}
330
3B
100
AcDbScale
 70
     0
300
1/128" = 1'-0"
140
0.0078125
141
12.0
290
     0
  0
SCALE
  5
4E
102
{ACAD_REACTORS
330
3B
102
}
330
3B
100
AcDbScale
 70
     0
300
1/64" = 1'-0"
140
0.015625
141
12.0
290
     0
  0
SCALE
  5
4F
102
{ACAD_REACTORS
330
3B
102
}
330
3B
100
AcDbScale
 70
     0
300
1/32" = 1'-0"
140
0.03125
141
12.0
290
     0
  0
SCALE
  5
50
102
{ACAD_REACTORS
330
3B
102
}
330
3B
100
AcDbScale
 70
     0
300
1/16" = 1'-0"
140
0.0625
141
12.0
290
     0
  0
SCALE
  5
51
102
{ACAD_REACTORS
330
3B
102
}
330
3B
100
AcDbScale
 70
     0
300
3/32" = 1'-0"
140
0.09375
141
12.0
290
     0
  0
SCALE
  5
52
102
{ACAD_REACTORS
330
3B
102
}
330
3B
100
AcDbScale
 70
     0
300
1/8" = 1'-0"
140
0.125
141
12.0
290
     0
  0
SCALE
  5
53
102
{ACAD_REACTORS
330
3B
102
}
330
3B
100
AcDbScale
 70
     0
300
3/16" = 1'-0"
140
0.1875
141
12.0
290
     0
  0
SCALE
  5
54
102
{ACAD_REACTORS
330
3B
102
}
330
3B
100
AcDbScale
 70
     0
300
1/4" = 1'-0"
140
0.25
141
12.0
290
     0
  0
SCALE
  5
55
102
{ACAD_REACTORS
330
3B
102
}
330
3B
100
AcDbScale
 70
     0
300
3/8" = 1'-0"
140
0.375
141
12.0
290
     0
  0
SCALE
  5
56
102
{ACAD_REACTORS
330
3B
102
}
330
3B
100
AcDbScale
 70
     0
300
1/2" = 1'-0"
140
0.5
141
12.0
290
     0
  0
SCALE
  5
57
102
{ACAD_REACTORS
330
3B
102
}
330
3B
100
AcDbScale
 70
     0
300
3/4" = 1'-0"
140
0.75
141
12.0
290
     0
  0
SCALE
  5
58
102
{ACAD_REACTORS
330
3B
102
}
330
3B
100
AcDbScale
 70
     0
300
1" = 1'-0"
140
1.0
141
12.0
290
     0
  0
SCALE
  5
59
102
{ACAD_REACTORS
330
3B
102
}
330
3B
100
AcDbScale
 70
     0
300
1-1/2" = 1'-0"
140
1.5
141
12.0
290
     0
  0
SCALE
  5
5A
102
{ACAD_REACTORS
330
3B
102
}
330
3B
100
AcDbScale
 70
     0
300
3" = 1'-0"
140
3.0
141
12.0
290
     0
  0
SCALE
  5
5B
102
{ACAD_REACTORS
330
3B
102
}
330
3B
100
AcDbScale
 70
     0
300
6" = 1'-0"
140
6.0
141
12.0
290
     0
  0
SCALE
  5
5C
102
{ACAD_REACTORS
330
3B
102
}
330
3B
100
AcDbScale
 70
     0
300
1'-0" = 1'-0"
140
12.0
141
12.0
290
     0
  0
VISUALSTYLE
  5
2F
102
{ACAD_REACTORS
330
2A
102
}
330
2A
100
AcDbVisualStyle
  2
2dWireframe
 70
     4
 71
     0
 72
     2
 73
     0
 90
        0
 40
-0.6
 41
-30.0
 62
     5
 63
     7
421
 16777215
 74
     1
 91
        4
 64
     7
 65
   257
 75
     1
175
     1
 42
1.0
 92
        0
 66
   257
 43
1.0
 76
     1
 77
     6
 78
     2
 67
     7
 79
     5
170
     0
171
     0
290
     0
174
     0
 93
        1
 44
0.0
173
     0
291
     0
 45
0.0
1001
ACAD
1000
AcDbSavedByObjectVersion
1070
     0
  0
VISUALSTYLE
  5
31
102
{ACAD_REACTORS
330
2A
102
}
330
2A
100
AcDbVisualStyle
  2
3D Hidden
 70
     6
 71
     1
 72
     2
 73
     2
 90
        0
 40
-0.6
 41
-30.0
 62
     5
 63
     7
421
 16777215
 74
     2
 91
        2
 64
     7
 65
   257
 75
     2
175
     1
 42
40.0
 92
        0
 66
   257
 43
1.0
 76
     1
 77
     6
 78
     2
 67
     7
 79
     3
170
     0
171
     0
290
     0
174
     0
 93
        1
 44
0.0
173
     0
291
     0
 45
0.0
1001
ACAD
1000
AcDbSavedByObjectVersion
1070
     0
  0
VISUALSTYLE
  5
30
102
{ACAD_REACTORS
330
2A
102
}
330
2A
100
AcDbVisualStyle
  2
3dWireframe
 70
     5
 71
     0
 72
     2
 73
     0
 90
        0
 40
-0.6
 41
-30.0
 62
     5
 63
     7
421
 16777215
 74
     1
 91
        4
 64
     7
 65
   257
 75
     1
175
     1
 42
1.0
 92
        0
 66
   257
 43
1.0
 76
     1
 77
     6
 78
     2
 67
     7
 79
     5
170
     0
171
     0
290
     0
174
     0
 93
        1
 44
0.0
173
     0
291
     0
 45
0.0
1001
ACAD
1000
AcDbSavedByObjectVersion
1070
     0
  0
VISUALSTYLE
  5
32
102
{ACAD_REACTORS
330
2A
102
}
330
2A
100
AcDbVisualStyle
  2
Basic
 70
     7
 71
     1
 72
     0
 73
     1
 90
        0
 40
-0.6
 41
-30.0
 62
     5
 63
     7
421
 16777215
 74
     0
 91
        4
 64
     7
 65
   257
 75
     1
175
     1
 42
1.0
 92
        8
 66
     7
 43
1.0
 76
     1
 77
     6
 78
     2
 67
     7
 79
     5
170
     0
171
     0
290
     0
174
     0
 93
        1
 44
0.0
173
     0
291
     1
 45
0.0
1001
ACAD
1000
AcDbSavedByObjectVersion
1070
     0
  0
VISUALSTYLE
  5
36
102
{ACAD_REACTORS
330
2A
102
}
330
2A
100
AcDbVisualStyle
  2
Brighten
 70
    12
 71
     2
 72
     2
 73
     0
 90
        0
 40
-0.6
 41
-30.0
 62
     5
 63
     7
421
 16777215
 74
     1
 91
        4
 64
     7
 65
   257
 75
     1
175
     1
 42
1.0
 92
        8
 66
     7
 43
1.0
 76
     1
 77
     6
 78
     2
 67
     7
 79
     5
170
     0
171
     0
290
     0
174
     0
 93
        1
 44
50.0
173
     0
291
     1
 45
0.0
1001
ACAD
1000
AcDbSavedByObjectVersion
1070
     0
  0
VISUALSTYLE
  5
3A
102
{ACAD_REACTORS
330
2A
102
}
330
2A
100
AcDbVisualStyle
  2
ColorChange
 70
    16
 71
     2
 72
     2
 73
     3
 90
        0
 40
-0.6
 41
-30.0
 62
     5
 63
     8
421
  8421504
 74
     1
 91
        4
 64
     7
 65
   257
 75
     1
175
     1
 42
1.0
 92
        8
 66
     8
424
  8421504
 43
1.0
 76
     1
 77
     6
 78
     2
 67
     7
 79
     5
170
     0
171
     0
290
     0
174
     0
 93
        1
 44
0.0
173
     0
291
     1
 45
0.0
1001
ACAD
1000
AcDbSavedByObjectVersion
1070
     0
  0
VISUALSTYLE
  5
34
102
{ACAD_REACTORS
330
2A
102
}
330
2A
100
AcDbVisualStyle
  2
Conceptual
 70
     9
 71
     3
 72
     2
 73
     0
 90
        0
 40
-0.6
 41
-30.0
 62
     5
 63
     7
421
 16777215
 74
     2
 91
        2
 64
     7
 65
   257
 75
     1
175
     1
 42
40.0
 92
        8
 66
     7
 43
1.0
 76
     1
 77
     6
 78
     2
 67
     7
 79
     3
170
     0
171
     0
290
     0
174
     0
 93
        1
 44
0.0
173
     0
291
     0
 45
0.0
1001
ACAD
1000
AcDbSavedByObjectVersion
1070
     0
  0
VISUALSTYLE
  5
35
102
{ACAD_REACTORS
330
2A
102
}
330
2A
100
AcDbVisualStyle
  2
Dim
 70
    11
 71
     2
 72
     2
 73
     0
 90
        0
 40
-0.6
 41
-30.0
 62
     5
 63
     7
421
 16777215
 74
     1
 91
        4
 64
     7
 65
   257
 75
     1
175
     1
 42
1.0
 92
        8
 66
     7
 43
1.0
 76
     1
 77
     6
 78
     2
 67
     7
 79
     5
170
     0
171
     0
290
     0
174
     0
 93
        1
 44
-50.0
173
     0
291
     1
 45
0.0
1001
ACAD
1000
AcDbSavedByObjectVersion
1070
     0
  0
VISUALSTYLE
  5
39
102
{ACAD_REACTORS
330
2A
102
}
330
2A
100
AcDbVisualStyle
  2
Facepattern
 70
    15
 71
     2
 72
     2
 73
     0
 90
        0
 40
-0.6
 41
-30.0
 62
     5
 63
     7
421
 16777215
 74
     1
 91
        4
 64
     7
 65
   257
 75
     1
175
     1
 42
1.0
 92
        8
 66
     7
 43
1.0
 76
     1
 77
     6
 78
     2
 67
     7
 79
     5
170
     0
171
     0
290
     0
174
     0
 93
        1
 44
0.0
173
     0
291
     1
 45
0.0
1001
ACAD
1000
AcDbSavedByObjectVersion
1070
     0
  0
VISUALSTYLE
  5
2B
102
{ACAD_REACTORS
330
2A
102
}
330
2A
100
AcDbVisualStyle
  2
Flat
 70
     0
 71
     2
 72
     1
 73
     1
 90
        2
 40
-0.6
 41
30.0
 62
     5
 63
     7
421
 16777215
 74
     0
 91
        4
 64
     7
 65
   257
 75
     1
175
     1
 42
1.0
 92
        8
 66
     7
 43
1.0
 76
     1
 77
     6
 78
     2
 67
     7
 79
     5
170
     0
171
     0
290
     0
174
     0
 93
       13
 44
0.0
173
     0
291
     1
 45
0.0
1001
ACAD
1000
AcDbSavedByObjectVersion
1070
     0
  0
VISUALSTYLE
  5
2C
102
{ACAD_REACTORS
330
2A
102
}
330
2A
100
AcDbVisualStyle
  2
FlatWithEdges
 70
     1
 71
     2
 72
     1
 73
     1
 90
        2
 40
-0.6
 41
30.0
 62
     5
 63
     7
421
 16777215
 74
     1
 91
        4
 64
     7
 65
   257
 75
     1
175
     1
 42
1.0
 92
        0
 66
   257
 43
1.0
 76
     1
 77
     6
 78
     2
 67
     7
 79
     5
170
     0
171
     0
290
     0
174
     0
 93
       13
 44
0.0
173
     0
291
     1
 45
0.0
1001
ACAD
1000
AcDbSavedByObjectVersion
1070
     0
  0
VISUALSTYLE
  5
2D
102
{ACAD_REACTORS
330
2A
102
}
330
2A
100
AcDbVisualStyle
  2
Gouraud
 70
     2
 71
     2
 72
     2
 73
     1
 90
        2
 40
-0.6
 41
30.0
 62
     5
 63
     7
421
 16777215
 74
     0
 91
        4
 64
     7
 65
   257
 75
     1
175
     1
 42
1.0
 92
        0
 66
     7
 43
1.0
 76
     1
 77
     6
 78
     2
 67
     7
 79
     5
170
     0
171
     0
290
     0
174
     0
 93
       13
 44
0.0
173
     0
291
     1
 45
0.0
1001
ACAD
1000
AcDbSavedByObjectVersion
1070
     0
  0
VISUALSTYLE
  5
2E
102
{ACAD_REACTORS
330
2A
102
}
330
2A
100
AcDbVisualStyle
  2
GouraudWithEdges
 70
     3
 71
     2
 72
     2
 73
     1
 90
        2
 40
-0.6
 41
30.0
 62
     5
 63
     7
421
 16777215
 74
     1
 91
        4
 64
     7
 65
   257
 75
     1
175
     1
 42
1.0
 92
        0
 66
   257
 43
1.0
 76
     1
 77
     6
 78
     2
 67
     7
 79
     5
170
     0
171
     0
290
     0
174
     0
 93
       13
 44
0.0
173
     0
291
     1
 45
0.0
1001
ACAD
1000
AcDbSavedByObjectVersion
1070
     0
  0
VISUALSTYLE
  5
38
102
{ACAD_REACTORS
330
2A
102
}
330
2A
100
AcDbVisualStyle
  2
Linepattern
 70
    14
 71
     2
 72
     2
 73
     0
 90
        0
 40
-0.6
 41
-30.0
 62
     5
 63
     7
421
 16777215
 74
     1
 91
        4
 64
     7
 65
   257
 75
     7
175
     7
 42
1.0
 92
        8
 66
     7
 43
1.0
 76
     1
 77
     6
 78
     2
 67
     7
 79
     5
170
     0
171
     0
290
     0
174
     0
 93
        1
 44
0.0
173
     0
291
     1
 45
0.0
1001
ACAD
1000
AcDbSavedByObjectVersion
1070
     0
  0
VISUALSTYLE
  5
33
102
{ACAD_REACTORS
330
2A
102
}
330
2A
100
AcDbVisualStyle
  2
Realistic
 70
     8
 71
     2
 72
     2
 73
     0
 90
        0
 40
-0.6
 41
-30.0
 62
     5
 63
     7
421
 16777215
 74
     1
 91
        0
 64
     7
 65
   257
 75
     1
175
     1
 42
1.0
 92
        8
 66
     8
424
  7895160
 43
1.0
 76
     1
 77
     6
 78
     2
 67
     7
 79
     5
170
     0
171
     0
290
     0
174
     0
 93
       13
 44
0.0
173
     0
291
     0
 45
0.0
1001
ACAD
1000
AcDbSavedByObjectVersion
1070
     0
  0
VISUALSTYLE
  5
37
102
{ACAD_REACTORS
330
2A
102
}
330
2A
100
AcDbVisualStyle
  2
Thicken
 70
    13
 71
     2
 72
     2
 73
     0
 90
        0
 40
-0.6
 41
-30.0
 62
     5
 63
     7
421
 16777215
 74
     1
 91
        4
 64
     7
 65
   257
 75
     1
175
     1
 42
1.0
 92
       12
 66
     7
 43
1.0
 76
     1
 77
     6
 78
     2
 67
     7
 79
     5
170
     0
171
     0
290
     0
174
     0
 93
        1
 44
0.0
173
     0
291
     1
 45
0.0
1001
ACAD
1000
AcDbSavedByObjectVersion
1070
     0
  0
ENDSEC
  0
EOF
